  0
SECTION
  2
HEADER
  9
$ACADVER
  1
AC1006
  9
$AXISMODE
 70
     0
  9
$AXISUNIT
 10
0.0625
 20
0.0625
  9
$CECOLOR
 62
0
  9
$CELTYPE
  6
CONTINUOUS
  9
$CLAYER
  8
LAYER1
  9
$EXTMIN
 10
0
 20
0
  9
$EXTMAX
 10
14.4062
 20
10.92
  9
$LIMMIN
 10
0
 20
0
  9
$LIMMAX
 10
14.4062
 20
10.92
  9
$GRIDMODE
 70
     0
  9
$GRIDUNIT
 10
0.125
 20
0.125
  9
$MIRRTEXT
 70
     1
  9
$SNAPMODE
 70
     1
  9
$SNAPUNIT
 10
0.125
 20
0
  9
$SNAPSTYLE
 70
     0
  9
$SPLINESEGS
 70
     8
  9
$SPLINETYPE
 70
     6
  0
ENDSEC
  0
SECTION
  2
TABLES
  0TABLE  2VPORT 70     2  0VPORT  2*ACTIVE 70     0 100.0 200.0 111.0 211.0 1213.01087 224.5 130.0 230.0 141.0 241.0 150.0 250.0 160.0 260.0 361.0 170.0 270.0 370.0 409.0 412.891304 4250.0 430.0 440.0 500.0 510.0 71     0 72   100 73     1 74     1 75     0 76     0 77     0 78     0  0ENDTAB
  0
TABLE
  2
LTYPE
 70
     1
  0
LTYPE
  2
CONTINUOUS
 70
    64
  3
Descriptive Text
 72
    65
 73
     0
 40
0
  0
ENDTAB
  0
TABLE
  2
LAYER
 70
     1
  0
LAYER
  2
LAYER1
 70
     0
 62
     7
  6
CONTINUOUS
  0
ENDTAB
  0TABLE  2STYLE 70     1  0STYLE  2STANDARD 70     0 400.0 411.0 500.0 71     0 420.2  3txt  4  0ENDTAB
  0
TABLE
  2
VIEW
 70
     0
  0
ENDTAB
  0
TABLE
  2
UCS
 70
     0
  0
ENDTAB
  0
TABLE
  2
DWGMGR
 70
     0
  0
ENDTAB
  0
ENDSEC
  0
SECTION
  2
BLOCKS
  0
BLOCK
  8
LAYER1
  2
Group1
 70
     0
 10
0
 20
0
 30
0
  0
TEXT
  8
LAYER1
 62
     7
 10
0.2111
 20
10.6073
 30
0
 40
0.125
  1
FLOWSHEET SYMBOLS- Valves
 50
0
999
Geneva
  0
LINE
  8
LAYER1
  6
CONTINUOUS
 62
     7
 10
0.1944
 20
10.8611
 30
0
 11
4.2222
 21
10.8611
 31
0
  0
ENDBLK
  8
LAYER1
  0
BLOCK
  8
LAYER1
  2
Group2
 70
     0
 10
0
 20
0
 30
0
  0
LINE
  8
LAYER1
  6
CONTINUOUS
 62
     7
 10
0.1944
 20
10.5417
 30
0
 11
4.2361
 21
10.5417
 31
0
  0
POLYLINE
  8
LAYER1
  6
CONTINUOUS
 62
     7
 66
     1
 70
     0
 40
0.0049
 41
0.0049
  0
VERTEX
  8
LAYER1
 10
1.7639
 20
9.8264
 30
0
 70
     0
  0
VERTEX
  8
LAYER1
 10
1.7582
 20
9.8689
 30
0
 70
     0
  0
VERTEX
  8
LAYER1
 10
1.7413
 20
9.8924
 30
0
 70
     0
  0
VERTEX
  8
LAYER1
 10
1.7131
 20
9.8967
 30
0
 70
     0
  0
VERTEX
  8
LAYER1
 10
1.6736
 20
9.8819
 30
0
 70
     0
  0
VERTEX
  8
LAYER1
 10
1.6736
 20
9.8819
 30
0
 70
     0
  0
VERTEX
  8
LAYER1
 10
1.6398
 20
9.8572
 30
0
 70
     0
  0
VERTEX
  8
LAYER1
 10
1.6285
 20
9.8316
 30
0
 70
     0
  0
VERTEX
  8
LAYER1
 10
1.6398
 20
9.8051
 30
0
 70
     0
  0
VERTEX
  8
LAYER1
 10
1.6736
 20
9.7778
 30
0
 70
     0
  0
VERTEX
  8
LAYER1
 10
1.6736
 20
9.7778
 30
0
 70
     0
  0
VERTEX
  8
LAYER1
 10
1.7131
 20
9.76
 30
0
 70
     0
  0
VERTEX
  8
LAYER1
 10
1.7413
 20
9.7621
 30
0
 70
     0
  0
VERTEX
  8
LAYER1
 10
1.7582
 20
9.7843
 30
0
 70
     0
  0
VERTEX
  8
LAYER1
 10
1.7639
 20
9.8264
 30
0
 70
     0
  0
SEQEND
  0
POLYLINE
  8
LAYER1
  6
CONTINUOUS
 62
     7
 66
     1
 70
     0
 40
0.0049
 41
0.0049
  0
VERTEX
  8
LAYER1
 10
1.4028
 20
9.8264
 30
0
 70
     0
  0
VERTEX
  8
LAYER1
 10
1.4084
 20
9.8689
 30
0
 70
     0
  0
VERTEX
  8
LAYER1
 10
1.4253
 20
9.8924
 30
0
 70
     0
  0
VERTEX
  8
LAYER1
 10
1.4535
 20
9.8967
 30
0
 70
     0
  0
VERTEX
  8
LAYER1
 10
1.4931
 20
9.8819
 30
0
 70
     0
  0
VERTEX
  8
LAYER1
 10
1.4931
 20
9.8819
 30
0
 70
     0
  0
VERTEX
  8
LAYER1
 10
1.5269
 20
9.8572
 30
0
 70
     0
  0
VERTEX
  8
LAYER1
 10
1.5382
 20
9.8316
 30
0
 70
     0
  0
VERTEX
  8
LAYER1
 10
1.5269
 20
9.8051
 30
0
 70
     0
  0
VERTEX
  8
LAYER1
 10
1.4931
 20
9.7778
 30
0
 70
     0
  0
VERTEX
  8
LAYER1
 10
1.4931
 20
9.7778
 30
0
 70
     0
  0
VERTEX
  8
LAYER1
 10
1.4535
 20
9.76
 30
0
 70
     0
  0
VERTEX
  8
LAYER1
 10
1.4253
 20
9.7621
 30
0
 70
     0
  0
VERTEX
  8
LAYER1
 10
1.4084
 20
9.7843
 30
0
 70
     0
  0
VERTEX
  8
LAYER1
 10
1.4028
 20
9.8264
 30
0
 70
     0
  0
SEQEND
  0
ENDBLK
  8
LAYER1
  0
BLOCK
  8
LAYER1
  2
Group3
 70
     0
 10
0
 20
0
 30
0
  0
INSERT
  8
LAYER1
  2
Group2
 10
0
 20
0
 30
0
  0
LINE
  8
LAYER1
  6
CONTINUOUS
 62
     7
 10
1.0972
 20
9.8333
 30
0
 11
1.4028
 21
9.8333
 31
0
  0
LINE
  8
LAYER1
  6
CONTINUOUS
 62
     7
 10
1.7639
 20
9.8333
 30
0
 11
2.0972
 21
9.8333
 31
0
  0
LINE
  8
LAYER1
  6
CONTINUOUS
 62
     7
 10
1.5833
 20
9.8333
 30
0
 11
1.5833
 21
10.0139
 31
0
  0
POLYLINE
  8
LAYER1
  6
CONTINUOUS
 62
     7
 66
     1
 70
     0
 40
0.0049
 41
0.0049
  0
VERTEX
  8
LAYER1
 10
1.5
 20
10.1806
 30
0
 70
     0
  0
VERTEX
  8
LAYER1
 10
1.6806
 20
10.1806
 30
0
 70
     0
  0
VERTEX
  8
LAYER1
 10
1.6806
 20
10
 30
0
 70
     0
  0
VERTEX
  8
LAYER1
 10
1.5
 20
10
 30
0
 70
     0
  0
VERTEX
  8
LAYER1
 10
1.5
 20
10.1806
 30
0
 70
     0
  0
SEQEND
  0
TEXT
  8
LAYER1
 62
     7
 10
1.5305
 20
10.0656
 30
0
 40
0.0833
  1
A
 50
0
999
Geneva
  0
ENDBLK
  8
LAYER1
  0
BLOCK
  8
LAYER1
  2
Group4
 70
     0
 10
0
 20
0
 30
0
  0
LINE
  8
LAYER1
  6
CONTINUOUS
 62
     7
 10
1.0972
 20
8.625
 30
0
 11
1.4028
 21
8.625
 31
0
  0
LINE
  8
LAYER1
  6
CONTINUOUS
 62
     7
 10
1.7639
 20
8.625
 30
0
 11
2.0972
 21
8.625
 31
0
  0
LINE
  8
LAYER1
  6
CONTINUOUS
 62
     7
 10
1.5833
 20
8.7222
 30
0
 11
1.5833
 21
8.8889
 31
0
  0
LINE
  8
LAYER1
  6
CONTINUOUS
 62
     7
 10
1.7639
 20
8.7361
 30
0
 11
1.625
 21
8.6528
 31
0
  0
POLYLINE
  8
LAYER1
  6
CONTINUOUS
 62
     7
 66
     1
 70
     0
 40
0.0049
 41
0.0049
  0
VERTEX
  8
LAYER1
 10
1.625
 20
8.5972
 30
0
 70
     0
  0
VERTEX
  8
LAYER1
 10
1.7639
 20
8.5139
 30
0
 70
     0
  0
VERTEX
  8
LAYER1
 10
1.7639
 20
8.7361
 30
0
 70
     0
  0
SEQEND
  0
LINE
  8
LAYER1
  6
CONTINUOUS
 62
     7
 10
1.4028
 20
8.7361
 30
0
 11
1.5417
 21
8.6528
 31
0
  0
POLYLINE
  8
LAYER1
  6
CONTINUOUS
 62
     7
 66
     1
 70
     0
 40
0.0049
 41
0.0049
  0
VERTEX
  8
LAYER1
 10
1.5417
 20
8.5972
 30
0
 70
     0
  0
VERTEX
  8
LAYER1
 10
1.4028
 20
8.5139
 30
0
 70
     0
  0
VERTEX
  8
LAYER1
 10
1.4028
 20
8.7361
 30
0
 70
     0
  0
SEQEND
  0
POLYLINE
  8
LAYER1
  6
CONTINUOUS
 62
     7
 66
     1
 70
     0
 40
0.0049
 41
0.0049
  0
VERTEX
  8
LAYER1
 10
1.5417
 20
8.7222
 30
0
 70
     0
  0
VERTEX
  8
LAYER1
 10
1.625
 20
8.7222
 30
0
 70
     0
  0
VERTEX
  8
LAYER1
 10
1.625
 20
8.5417
 30
0
 70
     0
  0
SEQEND
  0
LINE
  8
LAYER1
  6
CONTINUOUS
 62
     7
 10
1.5417
 20
8.5417
 30
0
 11
1.5417
 21
8.7222
 31
0
  0
POLYLINE
  8
LAYER1
  6
CONTINUOUS
 62
     7
 66
     1
 70
     0
 40
0.0049
 41
0.0049
  0
VERTEX
  8
LAYER1
 10
1.5417
 20
8.5417
 30
0
 70
     0
  0
VERTEX
  8
LAYER1
 10
1.5833
 20
8.5694
 30
0
 70
     0
  0
VERTEX
  8
LAYER1
 10
1.625
 20
8.5417
 30
0
 70
     0
  0
SEQEND
  0
ENDBLK
  8
LAYER1
  0
BLOCK
  8
LAYER1
  2
Group5
 70
     0
 10
0
 20
0
 30
0
  0
LINE
  8
LAYER1
  6
CONTINUOUS
 62
     7
 10
1.5278
 20
8.8889
 30
0
 11
1.6389
 21
8.8889
 31
0
  0
POLYLINE
  8
LAYER1
  6
CONTINUOUS
 62
     7
 66
     1
 70
     0
 40
0.0049
 41
0.0049
  0
VERTEX
  8
LAYER1
 10
1.5556
 20
7.4861
 30
0
 70
     0
  0
VERTEX
  8
LAYER1
 10
1.5612
 20
7.5312
 30
0
 70
     0
  0
VERTEX
  8
LAYER1
 10
1.5781
 20
7.5556
 30
0
 70
     0
  0
VERTEX
  8
LAYER1
 10
1.6063
 20
7.559
 30
0
 70
     0
  0
VERTEX
  8
LAYER1
 10
1.6458
 20
7.5417
 30
0
 70
     0
  0
VERTEX
  8
LAYER1
 10
1.6458
 20
7.5417
 30
0
 70
     0
  0
VERTEX
  8
LAYER1
 10
1.6797
 20
7.5139
 30
0
 70
     0
  0
VERTEX
  8
LAYER1
 10
1.691
 20
7.4861
 30
0
 70
     0
  0
VERTEX
  8
LAYER1
 10
1.6797
 20
7.4583
 30
0
 70
     0
  0
VERTEX
  8
LAYER1
 10
1.6458
 20
7.4306
 30
0
 70
     0
  0
VERTEX
  8
LAYER1
 10
1.6458
 20
7.4306
 30
0
 70
     0
  0
VERTEX
  8
LAYER1
 10
1.6063
 20
7.4132
 30
0
 70
     0
  0
VERTEX
  8
LAYER1
 10
1.5781
 20
7.4167
 30
0
 70
     0
  0
VERTEX
  8
LAYER1
 10
1.5612
 20
7.441
 30
0
 70
     0
  0
VERTEX
  8
LAYER1
 10
1.5556
 20
7.4861
 30
0
 70
     0
  0
SEQEND
  0
LINE
  8
LAYER1
  6
CONTINUOUS
 62
     7
 10
1.3472
 20
7.4861
 30
0
 11
1.5556
 21
7.4861
 31
0
  0
POLYLINE
  8
LAYER1
  6
CONTINUOUS
 62
     7
 66
     1
 70
     0
 40
0.0049
 41
0.0049
  0
VERTEX
  8
LAYER1
 10
1.7431
 20
7.3056
 30
0
 70
     0
  0
VERTEX
  8
LAYER1
 10
1.7852
 20
7.3112
 30
0
 70
     0
  0
VERTEX
  8
LAYER1
 10
1.8073
 20
7.3281
 30
0
 70
     0
  0
VERTEX
  8
LAYER1
 10
1.8095
 20
7.3563
 30
0
 70
     0
  0
VERTEX
  8
LAYER1
 10
1.7917
 20
7.3958
 30
0
 70
     0
  0
VERTEX
  8
LAYER1
 10
1.7917
 20
7.3958
 30
0
 70
     0
  0
VERTEX
  8
LAYER1
 10
1.7643
 20
7.4297
 30
0
 70
     0
  0
VERTEX
  8
LAYER1
 10
1.7378
 20
7.441
 30
0
 70
     0
  0
VERTEX
  8
LAYER1
 10
1.7122
 20
7.4297
 30
0
 70
     0
  0
VERTEX
  8
LAYER1
 10
1.6875
 20
7.3958
 30
0
 70
     0
  0
VERTEX
  8
LAYER1
 10
1.6875
 20
7.3958
 30
0
 70
     0
  0
VERTEX
  8
LAYER1
 10
1.6727
 20
7.3563
 30
0
 70
     0
  0
VERTEX
  8
LAYER1
 10
1.6771
 20
7.3281
 30
0
 70
     0
  0
VERTEX
  8
LAYER1
 10
1.7005
 20
7.3112
 30
0
 70
     0
  0
VERTEX
  8
LAYER1
 10
1.7431
 20
7.3056
 30
0
 70
     0
  0
SEQEND
  0
LINE
  8
LAYER1
  6
CONTINUOUS
 62
     7
 10
1.7361
 20
7.3056
 30
0
 11
1.7361
 21
7.0972
 31
0
  0
POLYLINE
  8
LAYER1
  6
CONTINUOUS
 62
     7
 66
     1
 70
     0
 40
0.0049
 41
0.0049
  0
VERTEX
  8
LAYER1
 10
1.7431
 20
7.7222
 30
0
 70
     0
  0
VERTEX
  8
LAYER1
 10
1.7739
 20
7.7148
 30
0
 70
     0
  0
VERTEX
  8
LAYER1
 10
1.7899
 20
7.6927
 30
0
 70
     0
  0
VERTEX
  8
LAYER1
 10
1.7912
 20
7.6558
 30
0
 70
     0
  0
VERTEX
  8
LAYER1
 10
1.7778
 20
7.6042
 30
0
 70
     0
  0
VERTEX
  8
LAYER1
 10
1.7778
 20
7.6042
 30
0
 70
     0
  0
VERTEX
  8
LAYER1
 10
1.7675
 20
7.5783
 30
0
 70
     0
  0
VERTEX
  8
LAYER1
 10
1.7574
 20
7.5599
 30
0
 70
     0
  0
VERTEX
  8
LAYER1
 10
1.7475
 20
7.5488
 30
0
 70
     0
  0
VERTEX
  8
LAYER1
 10
1.7378
 20
7.5451
 30
0
 70
     0
  0
VERTEX
  8
LAYER1
 10
1.7284
 20
7.5488
 30
0
 70
     0
  0
VERTEX
  8
LAYER1
 10
1.7192
 20
7.5599
 30
0
 70
     0
  0
VERTEX
  8
LAYER1
 10
1.7102
 20
7.5783
 30
0
 70
     0
  0
VERTEX
  8
LAYER1
 10
1.7014
 20
7.6042
 30
0
 70
     0
  0
VERTEX
  8
LAYER1
 10
1.7014
 20
7.6042
 30
0
 70
     0
  0
VERTEX
  8
LAYER1
 10
1.691
 20
7.6558
 30
0
 70
     0
  0
VERTEX
  8
LAYER1
 10
1.6944
 20
7.6927
 30
0
 70
     0
  0
VERTEX
  8
LAYER1
 10
1.7118
 20
7.7148
 30
0
 70
     0
  0
VERTEX
  8
LAYER1
 10
1.7431
 20
7.7222
 30
0
 70
     0
  0
SEQEND
  0
POLYLINE
  8
LAYER1
  6
CONTINUOUS
 62
     7
 66
     1
 70
     0
 40
0.0049
 41
0.0049
  0
VERTEX
  8
LAYER1
 10
1.6667
 20
7.7153
 30
0
 70
     0
  0
VERTEX
  8
LAYER1
 10
1.6727
 20
7.7449
 30
0
 70
     0
  0
VERTEX
  8
LAYER1
 10
1.6891
 20
7.7692
 30
0
 70
     0
  0
VERTEX
  8
LAYER1
 10
1.7134
 20
7.7856
 30
0
 70
     0
  0
VERTEX
  8
LAYER1
 10
1.7431
 20
7.7917
 30
0
 70
     0
  0
VERTEX
  8
LAYER1
 10
1.7431
 20
7.7917
 30
0
 70
     0
  0
VERTEX
  8
LAYER1
 10
1.7727
 20
7.7856
 30
0
 70
     0
  0
VERTEX
  8
LAYER1
 10
1.797
 20
7.7692
 30
0
 70
     0
  0
VERTEX
  8
LAYER1
 10
1.8134
 20
7.7449
 30
0
 70
     0
  0
VERTEX
  8
LAYER1
 10
1.8194
 20
7.7153
 30
0
 70
     0
  0
SEQEND
  0
ENDBLK
  8
LAYER1
  0
BLOCK
  8
LAYER1
  2
Group6
 70
     0
 10
0
 20
0
 30
0
  0
POLYLINE
  8
LAYER1
  6
CONTINUOUS
 62
     7
 66
     1
 70
     0
 40
0.0049
 41
0.0049
  0
VERTEX
  8
LAYER1
 10
1.7639
 20
4.875
 30
0
 70
     0
  0
VERTEX
  8
LAYER1
 10
1.7582
 20
4.9201
 30
0
 70
     0
  0
VERTEX
  8
LAYER1
 10
1.7413
 20
4.9444
 30
0
 70
     0
  0
VERTEX
  8
LAYER1
 10
1.7131
 20
4.9479
 30
0
 70
     0
  0
VERTEX
  8
LAYER1
 10
1.6736
 20
4.9306
 30
0
 70
     0
  0
VERTEX
  8
LAYER1
 10
1.6736
 20
4.9306
 30
0
 70
     0
  0
VERTEX
  8
LAYER1
 10
1.6398
 20
4.9028
 30
0
 70
     0
  0
VERTEX
  8
LAYER1
 10
1.6285
 20
4.875
 30
0
 70
     0
  0
VERTEX
  8
LAYER1
 10
1.6398
 20
4.8472
 30
0
 70
     0
  0
VERTEX
  8
LAYER1
 10
1.6736
 20
4.8194
 30
0
 70
     0
  0
VERTEX
  8
LAYER1
 10
1.6736
 20
4.8194
 30
0
 70
     0
  0
VERTEX
  8
LAYER1
 10
1.7131
 20
4.8021
 30
0
 70
     0
  0
VERTEX
  8
LAYER1
 10
1.7413
 20
4.8056
 30
0
 70
     0
  0
VERTEX
  8
LAYER1
 10
1.7582
 20
4.8299
 30
0
 70
     0
  0
VERTEX
  8
LAYER1
 10
1.7639
 20
4.875
 30
0
 70
     0
  0
SEQEND
  0
POLYLINE
  8
LAYER1
  6
CONTINUOUS
 62
     7
 66
     1
 70
     0
 40
0.0049
 41
0.0049
  0
VERTEX
  8
LAYER1
 10
1.4028
 20
4.875
 30
0
 70
     0
  0
VERTEX
  8
LAYER1
 10
1.4084
 20
4.9201
 30
0
 70
     0
  0
VERTEX
  8
LAYER1
 10
1.4253
 20
4.9444
 30
0
 70
     0
  0
VERTEX
  8
LAYER1
 10
1.4535
 20
4.9479
 30
0
 70
     0
  0
VERTEX
  8
LAYER1
 10
1.4931
 20
4.9306
 30
0
 70
     0
  0
VERTEX
  8
LAYER1
 10
1.4931
 20
4.9306
 30
0
 70
     0
  0
VERTEX
  8
LAYER1
 10
1.5269
 20
4.9028
 30
0
 70
     0
  0
VERTEX
  8
LAYER1
 10
1.5382
 20
4.875
 30
0
 70
     0
  0
VERTEX
  8
LAYER1
 10
1.5269
 20
4.8472
 30
0
 70
     0
  0
VERTEX
  8
LAYER1
 10
1.4931
 20
4.8194
 30
0
 70
     0
  0
VERTEX
  8
LAYER1
 10
1.4931
 20
4.8194
 30
0
 70
     0
  0
VERTEX
  8
LAYER1
 10
1.4535
 20
4.8021
 30
0
 70
     0
  0
VERTEX
  8
LAYER1
 10
1.4253
 20
4.8056
 30
0
 70
     0
  0
VERTEX
  8
LAYER1
 10
1.4084
 20
4.8299
 30
0
 70
     0
  0
VERTEX
  8
LAYER1
 10
1.4028
 20
4.875
 30
0
 70
     0
  0
SEQEND
  0
ENDBLK
  8
LAYER1
  0
BLOCK
  8
LAYER1
  2
Group7
 70
     0
 10
0
 20
0
 30
0
  0
LINE
  8
LAYER1
  6
CONTINUOUS
 62
     7
 10
1.7639
 20
4.875
 30
0
 11
2.0972
 21
4.875
 31
0
  0
SOLID
  8
LAYER1
 62
     7
 10
1.5833
 20
4.7361
 30
0
 11
1.5417
 21
4.8194
 31
0
 12
1.625
 22
4.8194
 32
0
 13
1.5833
 23
4.7917
 33
0
  0
ENDBLK
  8
LAYER1
  0
BLOCK
  8
LAYER1
  2
Group8
 70
     0
 10
0
 20
0
 30
0
  0
INSERT
  8
LAYER1
  2
Group6
 10
0
 20
0
 30
0
  0
LINE
  8
LAYER1
  6
CONTINUOUS
 62
     7
 10
1.0972
 20
4.875
 30
0
 11
1.4028
 21
4.875
 31
0
  0
INSERT
  8
LAYER1
  2
Group7
 10
0
 20
0
 30
0
  0
LINE
  8
LAYER1
  6
CONTINUOUS
 62
     7
 10
1.5833
 20
4.7917
 30
0
 11
1.5833
 21
5.0694
 31
0
  0
ENDBLK
  8
LAYER1
  0
BLOCK
  8
LAYER1
  2
Group9
 70
     0
 10
0
 20
0
 30
0
  0
LINE
  8
LAYER1
  6
CONTINUOUS
 62
     7
 10
1.5139
 20
5.0694
 30
0
 11
1.6528
 21
5.0694
 31
0
  0
POLYLINE
  8
LAYER1
  6
CONTINUOUS
 62
     7
 66
     1
 70
     0
 40
0.0049
 41
0.0049
  0
VERTEX
  8
LAYER1
 10
1.6389
 20
3.8681
 30
0
 70
     0
  0
VERTEX
  8
LAYER1
 10
1.6332
 20
3.9106
 30
0
 70
     0
  0
VERTEX
  8
LAYER1
 10
1.6163
 20
3.934
 30
0
 70
     0
  0
VERTEX
  8
LAYER1
 10
1.5881
 20
3.9384
 30
0
 70
     0
  0
VERTEX
  8
LAYER1
 10
1.5486
 20
3.9236
 30
0
 70
     0
  0
VERTEX
  8
LAYER1
 10
1.5486
 20
3.9236
 30
0
 70
     0
  0
VERTEX
  8
LAYER1
 10
1.5148
 20
3.8989
 30
0
 70
     0
  0
VERTEX
  8
LAYER1
 10
1.5035
 20
3.8733
 30
0
 70
     0
  0
VERTEX
  8
LAYER1
 10
1.5148
 20
3.8468
 30
0
 70
     0
  0
VERTEX
  8
LAYER1
 10
1.5486
 20
3.8194
 30
0
 70
     0
  0
VERTEX
  8
LAYER1
 10
1.5486
 20
3.8194
 30
0
 70
     0
  0
VERTEX
  8
LAYER1
 10
1.5881
 20
3.8016
 30
0
 70
     0
  0
VERTEX
  8
LAYER1
 10
1.6163
 20
3.8038
 30
0
 70
     0
  0
VERTEX
  8
LAYER1
 10
1.6332
 20
3.826
 30
0
 70
     0
  0
VERTEX
  8
LAYER1
 10
1.6389
 20
3.8681
 30
0
 70
     0
  0
SEQEND
  0
LINE
  8
LAYER1
  6
CONTINUOUS
 62
     7
 10
1.8472
 20
3.875
 30
0
 11
1.6389
 21
3.875
 31
0
  0
POLYLINE
  8
LAYER1
  6
CONTINUOUS
 62
     7
 66
     1
 70
     0
 40
0.0049
 41
0.0049
  0
VERTEX
  8
LAYER1
 10
1.4514
 20
3.6806
 30
0
 70
     0
  0
VERTEX
  8
LAYER1
 10
1.4093
 20
3.6866
 30
0
 70
     0
  0
VERTEX
  8
LAYER1
 10
1.3871
 20
3.7049
 30
0
 70
     0
  0
VERTEX
  8
LAYER1
 10
1.385
 20
3.7352
 30
0
 70
     0
  0
VERTEX
  8
LAYER1
 10
1.4028
 20
3.7778
 30
0
 70
     0
  0
VERTEX
  8
LAYER1
 10
1.4028
 20
3.7778
 30
0
 70
     0
  0
VERTEX
  8
LAYER1
 10
1.4301
 20
3.8142
 30
0
 70
     0
  0
VERTEX
  8
LAYER1
 10
1.4566
 20
3.8264
 30
0
 70
     0
  0
VERTEX
  8
LAYER1
 10
1.4822
 20
3.8142
 30
0
 70
     0
  0
VERTEX
  8
LAYER1
 10
1.5069
 20
3.7778
 30
0
 70
     0
  0
VERTEX
  8
LAYER1
 10
1.5069
 20
3.7778
 30
0
 70
     0
  0
VERTEX
  8
LAYER1
 10
1.5217
 20
3.7352
 30
0
 70
     0
  0
VERTEX
  8
LAYER1
 10
1.5174
 20
3.7049
 30
0
 70
     0
  0
VERTEX
  8
LAYER1
 10
1.4939
 20
3.6866
 30
0
 70
     0
  0
VERTEX
  8
LAYER1
 10
1.4514
 20
3.6806
 30
0
 70
     0
  0
SEQEND
  0
ENDBLK
  8
LAYER1
  0
BLOCK
  8
LAYER1
  2
Group10
 70
     0
 10
0
 20
0
 30
0
  0
LINE
  8
LAYER1
  6
CONTINUOUS
 62
     7
 10
1.4583
 20
3.875
 30
0
 11
1.4583
 21
4.1806
 31
0
  0
LINE
  8
LAYER1
  6
CONTINUOUS
 62
     7
 10
1.4167
 20
4.125
 30
0
 11
1.5
 21
4.1944
 31
0
  0
LINE
  8
LAYER1
  6
CONTINUOUS
 62
     7
 10
1.4167
 20
4.0694
 30
0
 11
1.5
 21
4.1389
 31
0
  0
LINE
  8
LAYER1
  6
CONTINUOUS
 62
     7
 10
1.4167
 20
4.0139
 30
0
 11
1.5
 21
4.0972
 31
0
  0
ENDBLK
  8
LAYER1
  0
BLOCK
  8
LAYER1
  2
Group11
 70
     0
 10
0
 20
0
 30
0
  0
INSERT
  8
LAYER1
  2
Group9
 10
0
 20
0
 30
0
  0
LINE
  8
LAYER1
  6
CONTINUOUS
 62
     7
 10
1.4583
 20
3.6806
 30
0
 11
1.4583
 21
3.4861
 31
0
  0
INSERT
  8
LAYER1
  2
Group10
 10
0
 20
0
 30
0
  0
ENDBLK
  8
LAYER1
  0
BLOCK
  8
LAYER1
  2
Group12
 70
     0
 10
0
 20
0
 30
0
  0
SOLID
  8
LAYER1
 62
     7
 10
1.4583
 20
2.2222
 30
0
 11
1.5
 21
2.1389
 31
0
 12
1.4167
 22
2.1389
 32
0
 13
1.4583
 23
2.1667
 33
0
  0
ENDBLK
  8
LAYER1
  0
BLOCK
  8
LAYER1
  2
Group13
 70
     0
 10
0
 20
0
 30
0
  0
LINE
  8
LAYER1
  6
CONTINUOUS
 62
     7
 10
1.4167
 20
3.9583
 30
0
 11
1.5
 21
4.0417
 31
0
  0
POLYLINE
  8
LAYER1
  6
CONTINUOUS
 62
     7
 66
     1
 70
     0
 40
0.0049
 41
0.0049
  0
VERTEX
  8
LAYER1
 10
1.6389
 20
2.4028
 30
0
 70
     0
  0
VERTEX
  8
LAYER1
 10
1.6332
 20
2.4479
 30
0
 70
     0
  0
VERTEX
  8
LAYER1
 10
1.6163
 20
2.4722
 30
0
 70
     0
  0
VERTEX
  8
LAYER1
 10
1.5881
 20
2.4757
 30
0
 70
     0
  0
VERTEX
  8
LAYER1
 10
1.5486
 20
2.4583
 30
0
 70
     0
  0
VERTEX
  8
LAYER1
 10
1.5486
 20
2.4583
 30
0
 70
     0
  0
VERTEX
  8
LAYER1
 10
1.5148
 20
2.4306
 30
0
 70
     0
  0
VERTEX
  8
LAYER1
 10
1.5035
 20
2.4028
 30
0
 70
     0
  0
VERTEX
  8
LAYER1
 10
1.5148
 20
2.375
 30
0
 70
     0
  0
VERTEX
  8
LAYER1
 10
1.5486
 20
2.3472
 30
0
 70
     0
  0
VERTEX
  8
LAYER1
 10
1.5486
 20
2.3472
 30
0
 70
     0
  0
VERTEX
  8
LAYER1
 10
1.5881
 20
2.3299
 30
0
 70
     0
  0
VERTEX
  8
LAYER1
 10
1.6163
 20
2.3333
 30
0
 70
     0
  0
VERTEX
  8
LAYER1
 10
1.6332
 20
2.3576
 30
0
 70
     0
  0
VERTEX
  8
LAYER1
 10
1.6389
 20
2.4028
 30
0
 70
     0
  0
SEQEND
  0
LINE
  8
LAYER1
  6
CONTINUOUS
 62
     7
 10
1.8472
 20
2.4028
 30
0
 11
1.6389
 21
2.4028
 31
0
  0
POLYLINE
  8
LAYER1
  6
CONTINUOUS
 62
     7
 66
     1
 70
     0
 40
0.0049
 41
0.0049
  0
VERTEX
  8
LAYER1
 10
1.4514
 20
2.2222
 30
0
 70
     0
  0
VERTEX
  8
LAYER1
 10
1.4093
 20
2.2279
 30
0
 70
     0
  0
VERTEX
  8
LAYER1
 10
1.3871
 20
2.2448
 30
0
 70
     0
  0
VERTEX
  8
LAYER1
 10
1.385
 20
2.273
 30
0
 70
     0
  0
VERTEX
  8
LAYER1
 10
1.4028
 20
2.3125
 30
0
 70
     0
  0
VERTEX
  8
LAYER1
 10
1.4028
 20
2.3125
 30
0
 70
     0
  0
VERTEX
  8
LAYER1
 10
1.4301
 20
2.3464
 30
0
 70
     0
  0
VERTEX
  8
LAYER1
 10
1.4566
 20
2.3576
 30
0
 70
     0
  0
VERTEX
  8
LAYER1
 10
1.4822
 20
2.3464
 30
0
 70
     0
  0
VERTEX
  8
LAYER1
 10
1.5069
 20
2.3125
 30
0
 70
     0
  0
VERTEX
  8
LAYER1
 10
1.5069
 20
2.3125
 30
0
 70
     0
  0
VERTEX
  8
LAYER1
 10
1.5217
 20
2.273
 30
0
 70
     0
  0
VERTEX
  8
LAYER1
 10
1.5174
 20
2.2448
 30
0
 70
     0
  0
VERTEX
  8
LAYER1
 10
1.4939
 20
2.2279
 30
0
 70
     0
  0
VERTEX
  8
LAYER1
 10
1.4514
 20
2.2222
 30
0
 70
     0
  0
SEQEND
  0
INSERT
  8
LAYER1
  2
Group12
 10
0
 20
0
 30
0
  0
LINE
  8
LAYER1
  6
CONTINUOUS
 62
     7
 10
1.4583
 20
2.1667
 30
0
 11
1.4583
 21
2.0139
 31
0
  0
LINE
  8
LAYER1
  6
CONTINUOUS
 62
     7
 10
1.4583
 20
2.4028
 30
0
 11
1.4583
 21
2.7083
 31
0
  0
ENDBLK
  8
LAYER1
  0
BLOCK
  8
LAYER1
  2
Group14
 70
     0
 10
0
 20
0
 30
0
  0
LINE
  8
LAYER1
  6
CONTINUOUS
 62
     7
 10
1.4028
 20
2.7083
 30
0
 11
1.5
 21
2.7083
 31
0
  0
SOLID
  8
LAYER1
 62
     7
 10
1.4028
 20
0.9583
 30
0
 11
1.4028
 21
1.1667
 31
0
 12
1.5833
 22
1.0694
 32
0
 13
1.5833
 23
1.0694
 33
0
  0
LINE
  8
LAYER1
  6
CONTINUOUS
 62
     7
 10
1.0972
 20
1.0694
 30
0
 11
1.4028
 21
1.0694
 31
0
  0
LINE
  8
LAYER1
  6
CONTINUOUS
 62
     7
 10
1.7639
 20
1.0694
 30
0
 11
2.0972
 21
1.0694
 31
0
  0
LINE
  8
LAYER1
  6
CONTINUOUS
 62
     7
 10
1.7639
 20
1.1667
 30
0
 11
1.5833
 21
1.0694
 31
0
  0
ENDBLK
  8
LAYER1
  0
BLOCK
  8
LAYER1
  2
Group15
 70
     0
 10
0
 20
0
 30
0
  0
LINE
  8
LAYER1
  6
CONTINUOUS
 62
     7
 10
1.7639
 20
0.9583
 30
0
 11
1.7639
 21
1.1667
 31
0
  0
POLYLINE
  8
LAYER1
  6
CONTINUOUS
 62
     7
 66
     1
 70
     0
 40
0.0049
 41
0.0049
  0
VERTEX
  8
LAYER1
 10
1.4167
 20
6.2014
 30
0
 70
     0
  0
VERTEX
  8
LAYER1
 10
1.4223
 20
6.2435
 30
0
 70
     0
  0
VERTEX
  8
LAYER1
 10
1.4392
 20
6.2656
 30
0
 70
     0
  0
VERTEX
  8
LAYER1
 10
1.4674
 20
6.2678
 30
0
 70
     0
  0
VERTEX
  8
LAYER1
 10
1.5069
 20
6.25
 30
0
 70
     0
  0
VERTEX
  8
LAYER1
 10
1.5069
 20
6.25
 30
0
 70
     0
  0
VERTEX
  8
LAYER1
 10
1.5408
 20
6.2227
 30
0
 70
     0
  0
VERTEX
  8
LAYER1
 10
1.5521
 20
6.1962
 30
0
 70
     0
  0
VERTEX
  8
LAYER1
 10
1.5408
 20
6.1706
 30
0
 70
     0
  0
VERTEX
  8
LAYER1
 10
1.5069
 20
6.1458
 30
0
 70
     0
  0
VERTEX
  8
LAYER1
 10
1.5069
 20
6.1458
 30
0
 70
     0
  0
VERTEX
  8
LAYER1
 10
1.4674
 20
6.1311
 30
0
 70
     0
  0
VERTEX
  8
LAYER1
 10
1.4392
 20
6.1354
 30
0
 70
     0
  0
VERTEX
  8
LAYER1
 10
1.4223
 20
6.1589
 30
0
 70
     0
  0
VERTEX
  8
LAYER1
 10
1.4167
 20
6.2014
 30
0
 70
     0
  0
SEQEND
  0
LINE
  8
LAYER1
  6
CONTINUOUS
 62
     7
 10
1.2083
 20
6.1944
 30
0
 11
1.4167
 21
6.1944
 31
0
  0
POLYLINE
  8
LAYER1
  6
CONTINUOUS
 62
     7
 66
     1
 70
     0
 40
0.0049
 41
0.0049
  0
VERTEX
  8
LAYER1
 10
1.5972
 20
6.0139
 30
0
 70
     0
  0
VERTEX
  8
LAYER1
 10
1.6424
 20
6.0195
 30
0
 70
     0
  0
VERTEX
  8
LAYER1
 10
1.6667
 20
6.0364
 30
0
 70
     0
  0
VERTEX
  8
LAYER1
 10
1.6701
 20
6.0647
 30
0
 70
     0
  0
VERTEX
  8
LAYER1
 10
1.6528
 20
6.1042
 30
0
 70
     0
  0
VERTEX
  8
LAYER1
 10
1.6528
 20
6.1042
 30
0
 70
     0
  0
VERTEX
  8
LAYER1
 10
1.625
 20
6.138
 30
0
 70
     0
  0
VERTEX
  8
LAYER1
 10
1.5972
 20
6.1493
 30
0
 70
     0
  0
VERTEX
  8
LAYER1
 10
1.5694
 20
6.138
 30
0
 70
     0
  0
VERTEX
  8
LAYER1
 10
1.5417
 20
6.1042
 30
0
 70
     0
  0
VERTEX
  8
LAYER1
 10
1.5417
 20
6.1042
 30
0
 70
     0
  0
VERTEX
  8
LAYER1
 10
1.5243
 20
6.0647
 30
0
 70
     0
  0
VERTEX
  8
LAYER1
 10
1.5278
 20
6.0364
 30
0
 70
     0
  0
VERTEX
  8
LAYER1
 10
1.5521
 20
6.0195
 30
0
 70
     0
  0
VERTEX
  8
LAYER1
 10
1.5972
 20
6.0139
 30
0
 70
     0
  0
SEQEND
  0
LINE
  8
LAYER1
  6
CONTINUOUS
 62
     7
 10
1.5972
 20
6.0139
 30
0
 11
1.5972
 21
5.8194
 31
0
  0
POLYLINE
  8
LAYER1
  6
CONTINUOUS
 62
     7
 66
     1
 70
     0
 40
0.0049
 41
0.0049
  0
VERTEX
  8
LAYER1
 10
1.5972
 20
6.4306
 30
0
 70
     0
  0
VERTEX
  8
LAYER1
 10
1.6254
 20
6.4232
 30
0
 70
     0
  0
VERTEX
  8
LAYER1
 10
1.6406
 20
6.401
 30
0
 70
     0
  0
VERTEX
  8
LAYER1
 10
1.6428
 20
6.3641
 30
0
 70
     0
  0
VERTEX
  8
LAYER1
 10
1.6319
 20
6.3125
 30
0
 70
     0
  0
VERTEX
  8
LAYER1
 10
1.6319
 20
6.3125
 30
0
 70
     0
  0
VERTEX
  8
LAYER1
 10
1.6233
 20
6.2867
 30
0
 70
     0
  0
VERTEX
  8
LAYER1
 10
1.6146
 20
6.2682
 30
0
 70
     0
  0
VERTEX
  8
LAYER1
 10
1.6059
 20
6.2572
 30
0
 70
     0
  0
VERTEX
  8
LAYER1
 10
1.5972
 20
6.2535
 30
0
 70
     0
  0
VERTEX
  8
LAYER1
 10
1.5885
 20
6.2572
 30
0
 70
     0
  0
VERTEX
  8
LAYER1
 10
1.5799
 20
6.2682
 30
0
 70
     0
  0
VERTEX
  8
LAYER1
 10
1.5712
 20
6.2867
 30
0
 70
     0
  0
VERTEX
  8
LAYER1
 10
1.5625
 20
6.3125
 30
0
 70
     0
  0
VERTEX
  8
LAYER1
 10
1.5625
 20
6.3125
 30
0
 70
     0
  0
VERTEX
  8
LAYER1
 10
1.5516
 20
6.3641
 30
0
 70
     0
  0
VERTEX
  8
LAYER1
 10
1.5538
 20
6.401
 30
0
 70
     0
  0
VERTEX
  8
LAYER1
 10
1.569
 20
6.4232
 30
0
 70
     0
  0
VERTEX
  8
LAYER1
 10
1.5972
 20
6.4306
 30
0
 70
     0
  0
SEQEND
  0
POLYLINE
  8
LAYER1
  6
CONTINUOUS
 62
     7
 66
     1
 70
     0
 40
0.0049
 41
0.0049
  0
VERTEX
  8
LAYER1
 10
1.5278
 20
6.4375
 30
0
 70
     0
  0
VERTEX
  8
LAYER1
 10
1.5338
 20
6.4671
 30
0
 70
     0
  0
VERTEX
  8
LAYER1
 10
1.5503
 20
6.4914
 30
0
 70
     0
  0
VERTEX
  8
LAYER1
 10
1.5746
 20
6.5078
 30
0
 70
     0
  0
VERTEX
  8
LAYER1
 10
1.6042
 20
6.5139
 30
0
 70
     0
  0
VERTEX
  8
LAYER1
 10
1.6042
 20
6.5139
 30
0
 70
     0
  0
VERTEX
  8
LAYER1
 10
1.6338
 20
6.5078
 30
0
 70
     0
  0
VERTEX
  8
LAYER1
 10
1.6581
 20
6.4914
 30
0
 70
     0
  0
VERTEX
  8
LAYER1
 10
1.6745
 20
6.4671
 30
0
 70
     0
  0
VERTEX
  8
LAYER1
 10
1.6806
 20
6.4375
 30
0
 70
     0
  0
SEQEND
  0
POLYLINE
  8
LAYER1
  6
CONTINUOUS
 62
     7
 66
     1
 70
     0
 40
0.0049
 41
0.0049
  0
VERTEX
  8
LAYER1
 10
1.7778
 20
6.2014
 30
0
 70
     0
  0
VERTEX
  8
LAYER1
 10
1.7721
 20
6.2435
 30
0
 70
     0
  0
VERTEX
  8
LAYER1
 10
1.7552
 20
6.2656
 30
0
 70
     0
  0
VERTEX
  8
LAYER1
 10
1.727
 20
6.2678
 30
0
 70
     0
  0
VERTEX
  8
LAYER1
 10
1.6875
 20
6.25
 30
0
 70
     0
  0
VERTEX
  8
LAYER1
 10
1.6875
 20
6.25
 30
0
 70
     0
  0
VERTEX
  8
LAYER1
 10
1.6536
 20
6.2227
 30
0
 70
     0
  0
VERTEX
  8
LAYER1
 10
1.6424
 20
6.1962
 30
0
 70
     0
  0
VERTEX
  8
LAYER1
 10
1.6536
 20
6.1706
 30
0
 70
     0
  0
VERTEX
  8
LAYER1
 10
1.6875
 20
6.1458
 30
0
 70
     0
  0
VERTEX
  8
LAYER1
 10
1.6875
 20
6.1458
 30
0
 70
     0
  0
VERTEX
  8
LAYER1
 10
1.727
 20
6.1311
 30
0
 70
     0
  0
VERTEX
  8
LAYER1
 10
1.7552
 20
6.1354
 30
0
 70
     0
  0
VERTEX
  8
LAYER1
 10
1.7721
 20
6.1589
 30
0
 70
     0
  0
VERTEX
  8
LAYER1
 10
1.7778
 20
6.2014
 30
0
 70
     0
  0
SEQEND
  0
ENDBLK
  8
LAYER1
  0
BLOCK
  8
LAYER1
  2
Group16
 70
     0
 10
0
 20
0
 30
0
  0
SOLID
  8
LAYER1
 62
     7
 10
12.9028
 20
9.8611
 30
0
 11
12.8194
 21
9.8194
 31
0
 12
12.8194
 22
9.9028
 32
0
 13
12.8472
 23
9.8611
 33
0
  0
ENDBLK
  8
LAYER1
  0
BLOCK
  8
LAYER1
  2
Group17
 70
     0
 10
0
 20
0
 30
0
  0
LINE
  8
LAYER1
  6
CONTINUOUS
 62
     7
 10
1.9861
 20
6.1944
 30
0
 11
1.7778
 21
6.1944
 31
0
  0
POLYLINE
  8
LAYER1
  6
CONTINUOUS
 62
     7
 66
     1
 70
     0
 40
0.0049
 41
0.0049
  0
VERTEX
  8
LAYER1
 10
13.2778
 20
9.8542
 30
0
 70
     0
  0
VERTEX
  8
LAYER1
 10
13.2721
 20
9.8967
 30
0
 70
     0
  0
VERTEX
  8
LAYER1
 10
13.2552
 20
9.9201
 30
0
 70
     0
  0
VERTEX
  8
LAYER1
 10
13.227
 20
9.9245
 30
0
 70
     0
  0
VERTEX
  8
LAYER1
 10
13.1875
 20
9.9097
 30
0
 70
     0
  0
VERTEX
  8
LAYER1
 10
13.1875
 20
9.9097
 30
0
 70
     0
  0
VERTEX
  8
LAYER1
 10
13.1536
 20
9.885
 30
0
 70
     0
  0
VERTEX
  8
LAYER1
 10
13.1424
 20
9.8594
 30
0
 70
     0
  0
VERTEX
  8
LAYER1
 10
13.1536
 20
9.8329
 30
0
 70
     0
  0
VERTEX
  8
LAYER1
 10
13.1875
 20
9.8056
 30
0
 70
     0
  0
VERTEX
  8
LAYER1
 10
13.1875
 20
9.8056
 30
0
 70
     0
  0
VERTEX
  8
LAYER1
 10
13.227
 20
9.7878
 30
0
 70
     0
  0
VERTEX
  8
LAYER1
 10
13.2552
 20
9.7899
 30
0
 70
     0
  0
VERTEX
  8
LAYER1
 10
13.2721
 20
9.8121
 30
0
 70
     0
  0
VERTEX
  8
LAYER1
 10
13.2778
 20
9.8542
 30
0
 70
     0
  0
SEQEND
  0
SOLID
  8
LAYER1
 62
     7
 10
12.9028
 20
9.75
 30
0
 11
12.9028
 21
9.9583
 31
0
 12
13.0972
 22
9.8611
 32
0
 13
13.0972
 23
9.8611
 33
0
  0
INSERT
  8
LAYER1
  2
Group16
 10
0
 20
0
 30
0
  0
LINE
  8
LAYER1
  6
CONTINUOUS
 62
     7
 10
12.5972
 20
9.8611
 30
0
 11
12.8472
 21
9.8611
 31
0
  0
LINE
  8
LAYER1
  6
CONTINUOUS
 62
     7
 10
13.2778
 20
9.8611
 30
0
 11
13.5972
 21
9.8611
 31
0
  0
LINE
  8
LAYER1
  6
CONTINUOUS
 62
     7
 10
13
 20
9.9167
 30
0
 11
13.1111
 21
10.125
 31
0
  0
ENDBLK
  8
LAYER1
  0
BLOCK
  8
LAYER1
  2
Group18
 70
     0
 10
0
 20
0
 30
0
  0
LINE
  8
LAYER1
  6
CONTINUOUS
 62
     7
 10
13.0694
 20
10.1528
 30
0
 11
13.1667
 21
10.0972
 31
0
  0
LINE
  8
LAYER1
  6
CONTINUOUS
 62
     7
 10
4.0278
 20
9.8194
 30
0
 11
4.3194
 21
9.8194
 31
0
  0
LINE
  8
LAYER1
  6
CONTINUOUS
 62
     7
 10
4.6944
 20
9.8194
 30
0
 11
5.0278
 21
9.8194
 31
0
  0
LINE
  8
LAYER1
  6
CONTINUOUS
 62
     7
 10
4.5139
 20
9.7083
 30
0
 11
4.5139
 21
9.9167
 31
0
  0
LINE
  8
LAYER1
  6
CONTINUOUS
 62
     7
 10
4.6944
 20
9.9167
 30
0
 11
4.5972
 21
9.8611
 31
0
  0
POLYLINE
  8
LAYER1
  6
CONTINUOUS
 62
     7
 66
     1
 70
     0
 40
0.0049
 41
0.0049
  0
VERTEX
  8
LAYER1
 10
4.5972
 20
9.7639
 30
0
 70
     0
  0
VERTEX
  8
LAYER1
 10
4.6944
 20
9.7083
 30
0
 70
     0
  0
VERTEX
  8
LAYER1
 10
4.6944
 20
9.9167
 30
0
 70
     0
  0
SEQEND
  0
LINE
  8
LAYER1
  6
CONTINUOUS
 62
     7
 10
4.3194
 20
9.9167
 30
0
 11
4.4306
 21
9.8611
 31
0
  0
ENDBLK
  8
LAYER1
  0
BLOCK
  8
LAYER1
  2
Group19
 70
     0
 10
0
 20
0
 30
0
  0
POLYLINE
  8
LAYER1
  6
CONTINUOUS
 62
     7
 66
     1
 70
     0
 40
0.0049
 41
0.0049
  0
VERTEX
  8
LAYER1
 10
4.4306
 20
9.7639
 30
0
 70
     0
  0
VERTEX
  8
LAYER1
 10
4.3194
 20
9.7083
 30
0
 70
     0
  0
VERTEX
  8
LAYER1
 10
4.3194
 20
9.9167
 30
0
 70
     0
  0
SEQEND
  0
LINE
  8
LAYER1
  6
CONTINUOUS
 62
     7
 10
4.0278
 20
8.6389
 30
0
 11
4.3194
 21
8.6389
 31
0
  0
LINE
  8
LAYER1
  6
CONTINUOUS
 62
     7
 10
4.6944
 20
8.6389
 30
0
 11
5.0278
 21
8.6389
 31
0
  0
LINE
  8
LAYER1
  6
CONTINUOUS
 62
     7
 10
4.6944
 20
8.7361
 30
0
 11
4.5972
 21
8.6806
 31
0
  0
POLYLINE
  8
LAYER1
  6
CONTINUOUS
 62
     7
 66
     1
 70
     0
 40
0.0049
 41
0.0049
  0
VERTEX
  8
LAYER1
 10
4.5972
 20
8.5833
 30
0
 70
     0
  0
VERTEX
  8
LAYER1
 10
4.6944
 20
8.5278
 30
0
 70
     0
  0
VERTEX
  8
LAYER1
 10
4.6944
 20
8.7361
 30
0
 70
     0
  0
SEQEND
  0
LINE
  8
LAYER1
  6
CONTINUOUS
 62
     7
 10
4.3194
 20
8.7361
 30
0
 11
4.4306
 21
8.6806
 31
0
  0
POLYLINE
  8
LAYER1
  6
CONTINUOUS
 62
     7
 66
     1
 70
     0
 40
0.0049
 41
0.0049
  0
VERTEX
  8
LAYER1
 10
4.4306
 20
8.5833
 30
0
 70
     0
  0
VERTEX
  8
LAYER1
 10
4.3194
 20
8.5278
 30
0
 70
     0
  0
VERTEX
  8
LAYER1
 10
4.3194
 20
8.7361
 30
0
 70
     0
  0
SEQEND
  0
CIRCLE
  8
LAYER1
 10
4.5139
 20
8.625
 30
0
 40
0.0972
  0
ENDBLK
  8
LAYER1
  0
BLOCK
  8
LAYER1
  2
Group20
 70
     0
 10
0
 20
0
 30
0
  0
LINE
  8
LAYER1
  6
CONTINUOUS
 62
     7
 10
4.375
 20
7.4722
 30
0
 11
4.375
 21
7.7917
 31
0
  0
LINE
  8
LAYER1
  6
CONTINUOUS
 62
     7
 10
4.3472
 20
7.7222
 30
0
 11
4.4167
 21
7.7917
 31
0
  0
LINE
  8
LAYER1
  6
CONTINUOUS
 62
     7
 10
4.3472
 20
7.6667
 30
0
 11
4.4167
 21
7.75
 31
0
  0
LINE
  8
LAYER1
  6
CONTINUOUS
 62
     7
 10
4.3472
 20
7.6111
 30
0
 11
4.4167
 21
7.6944
 31
0
  0
ENDBLK
  8
LAYER1
  0
BLOCK
  8
LAYER1
  2
Group21
 70
     0
 10
0
 20
0
 30
0
  0
POLYLINE
  8
LAYER1
  6
CONTINUOUS
 62
     7
 66
     1
 70
     0
 40
0.0049
 41
0.0049
  0
VERTEX
  8
LAYER1
 10
4.5694
 20
7.4722
 30
0
 70
     0
  0
VERTEX
  8
LAYER1
 10
4.5634
 20
7.5174
 30
0
 70
     0
  0
VERTEX
  8
LAYER1
 10
4.5451
 20
7.5417
 30
0
 70
     0
  0
VERTEX
  8
LAYER1
 10
4.5148
 20
7.5451
 30
0
 70
     0
  0
VERTEX
  8
LAYER1
 10
4.4722
 20
7.5278
 30
0
 70
     0
  0
VERTEX
  8
LAYER1
 10
4.4722
 20
7.5278
 30
0
 70
     0
  0
VERTEX
  8
LAYER1
 10
4.4358
 20
7.5
 30
0
 70
     0
  0
VERTEX
  8
LAYER1
 10
4.4236
 20
7.4722
 30
0
 70
     0
  0
VERTEX
  8
LAYER1
 10
4.4358
 20
7.4444
 30
0
 70
     0
  0
VERTEX
  8
LAYER1
 10
4.4722
 20
7.4167
 30
0
 70
     0
  0
VERTEX
  8
LAYER1
 10
4.4722
 20
7.4167
 30
0
 70
     0
  0
VERTEX
  8
LAYER1
 10
4.5148
 20
7.3993
 30
0
 70
     0
  0
VERTEX
  8
LAYER1
 10
4.5451
 20
7.4028
 30
0
 70
     0
  0
VERTEX
  8
LAYER1
 10
4.5634
 20
7.4271
 30
0
 70
     0
  0
VERTEX
  8
LAYER1
 10
4.5694
 20
7.4722
 30
0
 70
     0
  0
SEQEND
  0
LINE
  8
LAYER1
  6
CONTINUOUS
 62
     7
 10
4.7778
 20
7.4722
 30
0
 11
4.5694
 21
7.4722
 31
0
  0
INSERT
  8
LAYER1
  2
Group20
 10
0
 20
0
 30
0
  0
LINE
  8
LAYER1
  6
CONTINUOUS
 62
     7
 10
4.3472
 20
7.5694
 30
0
 11
4.4167
 21
7.6389
 31
0
  0
POLYLINE
  8
LAYER1
  6
CONTINUOUS
 62
     7
 66
     1
 70
     0
 40
0.0049
 41
0.0049
  0
VERTEX
  8
LAYER1
 10
4.2778
 20
7.2917
 30
0
 70
     0
  0
VERTEX
  8
LAYER1
 10
4.375
 20
7.4722
 30
0
 70
     0
  0
VERTEX
  8
LAYER1
 10
4.4861
 20
7.2917
 30
0
 70
     0
  0
VERTEX
  8
LAYER1
 10
4.2778
 20
7.2917
 30
0
 70
     0
  0
SEQEND
  0
LINE
  8
LAYER1
  6
CONTINUOUS
 62
     7
 10
4.4861
 20
7.25
 30
0
 11
4.2778
 21
7.25
 31
0
  0
LINE
  8
LAYER1
  6
CONTINUOUS
 62
     7
 10
4.4861
 20
7.1667
 30
0
 11
4.2778
 21
7.1667
 31
0
  0
LINE
  8
LAYER1
  6
CONTINUOUS
 62
     7
 10
4.4861
 20
7.125
 30
0
 11
4.2778
 21
7.125
 31
0
  0
LINE
  8
LAYER1
  6
CONTINUOUS
 62
     7
 10
4.375
 20
7.125
 30
0
 11
4.375
 21
6.9722
 31
0
  0
POLYLINE
  8
LAYER1
  6
CONTINUOUS
 62
     7
 66
     1
 70
     0
 40
0.0049
 41
0.0049
  0
VERTEX
  8
LAYER1
 10
4.3333
 20
7.1667
 30
0
 70
     0
  0
VERTEX
  8
LAYER1
 10
4.3333
 20
7.1667
 30
0
 70
     0
  0
VERTEX
  8
LAYER1
 10
4.3472
 20
7.1944
 30
0
 70
     0
  0
VERTEX
  8
LAYER1
 10
4.3472
 20
7.1944
 30
0
 70
     0
  0
VERTEX
  8
LAYER1
 10
4.3472
 20
7.1944
 30
0
 70
     0
  0
VERTEX
  8
LAYER1
 10
4.375
 20
7.2083
 30
0
 70
     0
  0
VERTEX
  8
LAYER1
 10
4.375
 20
7.2083
 30
0
 70
     0
  0
VERTEX
  8
LAYER1
 10
4.3889
 20
7.2083
 30
0
 70
     0
  0
VERTEX
  8
LAYER1
 10
4.4167
 20
7.1944
 30
0
 70
     0
  0
VERTEX
  8
LAYER1
 10
4.4167
 20
7.1944
 30
0
 70
     0
  0
VERTEX
  8
LAYER1
 10
4.4306
 20
7.1806
 30
0
 70
     0
  0
VERTEX
  8
LAYER1
 10
4.4306
 20
7.1667
 30
0
 70
     0
  0
VERTEX
  8
LAYER1
 10
4.4306
 20
7.1667
 30
0
 70
     0
  0
VERTEX
  8
LAYER1
 10
4.4306
 20
7.1667
 30
0
 70
     0
  0
SEQEND
  0
ENDBLK
  8
LAYER1
  0
BLOCK
  8
LAYER1
  2
Group22
 70
     0
 10
0
 20
0
 30
0
  0
POLYLINE
  8
LAYER1
  6
CONTINUOUS
 62
     7
 66
     1
 70
     0
 40
0.0049
 41
0.0049
  0
VERTEX
  8
LAYER1
 10
4.6944
 20
5.5903
 30
0
 70
     0
  0
VERTEX
  8
LAYER1
 10
4.6888
 20
5.6328
 30
0
 70
     0
  0
VERTEX
  8
LAYER1
 10
4.6719
 20
5.6562
 30
0
 70
     0
  0
VERTEX
  8
LAYER1
 10
4.6437
 20
5.6606
 30
0
 70
     0
  0
VERTEX
  8
LAYER1
 10
4.6042
 20
5.6458
 30
0
 70
     0
  0
VERTEX
  8
LAYER1
 10
4.6042
 20
5.6458
 30
0
 70
     0
  0
VERTEX
  8
LAYER1
 10
4.5703
 20
5.6211
 30
0
 70
     0
  0
VERTEX
  8
LAYER1
 10
4.559
 20
5.5955
 30
0
 70
     0
  0
VERTEX
  8
LAYER1
 10
4.5703
 20
5.569
 30
0
 70
     0
  0
VERTEX
  8
LAYER1
 10
4.6042
 20
5.5417
 30
0
 70
     0
  0
VERTEX
  8
LAYER1
 10
4.6042
 20
5.5417
 30
0
 70
     0
  0
VERTEX
  8
LAYER1
 10
4.6437
 20
5.5239
 30
0
 70
     0
  0
VERTEX
  8
LAYER1
 10
4.6719
 20
5.526
 30
0
 70
     0
  0
VERTEX
  8
LAYER1
 10
4.6888
 20
5.5482
 30
0
 70
     0
  0
VERTEX
  8
LAYER1
 10
4.6944
 20
5.5903
 30
0
 70
     0
  0
SEQEND
  0
POLYLINE
  8
LAYER1
  6
CONTINUOUS
 62
     7
 66
     1
 70
     0
 40
0.0049
 41
0.0049
  0
VERTEX
  8
LAYER1
 10
4.3194
 20
5.5903
 30
0
 70
     0
  0
VERTEX
  8
LAYER1
 10
4.3255
 20
5.6328
 30
0
 70
     0
  0
VERTEX
  8
LAYER1
 10
4.3437
 20
5.6562
 30
0
 70
     0
  0
VERTEX
  8
LAYER1
 10
4.3741
 20
5.6606
 30
0
 70
     0
  0
VERTEX
  8
LAYER1
 10
4.4167
 20
5.6458
 30
0
 70
     0
  0
VERTEX
  8
LAYER1
 10
4.4167
 20
5.6458
 30
0
 70
     0
  0
VERTEX
  8
LAYER1
 10
4.4531
 20
5.6211
 30
0
 70
     0
  0
VERTEX
  8
LAYER1
 10
4.4653
 20
5.5955
 30
0
 70
     0
  0
VERTEX
  8
LAYER1
 10
4.4531
 20
5.569
 30
0
 70
     0
  0
VERTEX
  8
LAYER1
 10
4.4167
 20
5.5417
 30
0
 70
     0
  0
VERTEX
  8
LAYER1
 10
4.4167
 20
5.5417
 30
0
 70
     0
  0
VERTEX
  8
LAYER1
 10
4.3741
 20
5.5239
 30
0
 70
     0
  0
VERTEX
  8
LAYER1
 10
4.3437
 20
5.526
 30
0
 70
     0
  0
VERTEX
  8
LAYER1
 10
4.3255
 20
5.5482
 30
0
 70
     0
  0
VERTEX
  8
LAYER1
 10
4.3194
 20
5.5903
 30
0
 70
     0
  0
SEQEND
  0
ENDBLK
  8
LAYER1
  0
BLOCK
  8
LAYER1
  2
Group23
 70
     0
 10
0
 20
0
 30
0
  0
INSERT
  8
LAYER1
  2
Group22
 10
0
 20
0
 30
0
  0
LINE
  8
LAYER1
  6
CONTINUOUS
 62
     7
 10
4.0278
 20
5.5972
 30
0
 11
4.3194
 21
5.5972
 31
0
  0
LINE
  8
LAYER1
  6
CONTINUOUS
 62
     7
 10
4.6944
 20
5.5972
 30
0
 11
5.0278
 21
5.5972
 31
0
  0
LINE
  8
LAYER1
  6
CONTINUOUS
 62
     7
 10
4.5139
 20
5.5972
 30
0
 11
4.5139
 21
5.7778
 31
0
  0
POLYLINE
  8
LAYER1
  6
CONTINUOUS
 62
     7
 66
     1
 70
     0
 40
0.0049
 41
0.0049
  0
VERTEX
  8
LAYER1
 10
4.4306
 20
5.9444
 30
0
 70
     0
  0
VERTEX
  8
LAYER1
 10
4.6111
 20
5.9444
 30
0
 70
     0
  0
VERTEX
  8
LAYER1
 10
4.6111
 20
5.7639
 30
0
 70
     0
  0
VERTEX
  8
LAYER1
 10
4.4306
 20
5.7639
 30
0
 70
     0
  0
VERTEX
  8
LAYER1
 10
4.4306
 20
5.9444
 30
0
 70
     0
  0
SEQEND
  0
TEXT
  8
LAYER1
 62
     7
 10
4.4749
 20
5.8434
 30
0
 40
0.0833
  1
E
 50
0
999
Geneva
  0
ENDBLK
  8
LAYER1
  0
BLOCK
  8
LAYER1
  2
Group24
 70
     0
 10
0
 20
0
 30
0
  0
POLYLINE
  8
LAYER1
  6
CONTINUOUS
 62
     7
 66
     1
 70
     0
 40
0.0049
 41
0.0049
  0
VERTEX
  8
LAYER1
 10
4.6944
 20
4.2569
 30
0
 70
     0
  0
VERTEX
  8
LAYER1
 10
4.6888
 20
4.2995
 30
0
 70
     0
  0
VERTEX
  8
LAYER1
 10
4.6719
 20
4.3229
 30
0
 70
     0
  0
VERTEX
  8
LAYER1
 10
4.6437
 20
4.3273
 30
0
 70
     0
  0
VERTEX
  8
LAYER1
 10
4.6042
 20
4.3125
 30
0
 70
     0
  0
VERTEX
  8
LAYER1
 10
4.6042
 20
4.3125
 30
0
 70
     0
  0
VERTEX
  8
LAYER1
 10
4.5703
 20
4.2878
 30
0
 70
     0
  0
VERTEX
  8
LAYER1
 10
4.559
 20
4.2621
 30
0
 70
     0
  0
VERTEX
  8
LAYER1
 10
4.5703
 20
4.2357
 30
0
 70
     0
  0
VERTEX
  8
LAYER1
 10
4.6042
 20
4.2083
 30
0
 70
     0
  0
VERTEX
  8
LAYER1
 10
4.6042
 20
4.2083
 30
0
 70
     0
  0
VERTEX
  8
LAYER1
 10
4.6437
 20
4.1905
 30
0
 70
     0
  0
VERTEX
  8
LAYER1
 10
4.6719
 20
4.1927
 30
0
 70
     0
  0
VERTEX
  8
LAYER1
 10
4.6888
 20
4.2148
 30
0
 70
     0
  0
VERTEX
  8
LAYER1
 10
4.6944
 20
4.2569
 30
0
 70
     0
  0
SEQEND
  0
POLYLINE
  8
LAYER1
  6
CONTINUOUS
 62
     7
 66
     1
 70
     0
 40
0.0049
 41
0.0049
  0
VERTEX
  8
LAYER1
 10
4.3194
 20
4.2569
 30
0
 70
     0
  0
VERTEX
  8
LAYER1
 10
4.3255
 20
4.2995
 30
0
 70
     0
  0
VERTEX
  8
LAYER1
 10
4.3437
 20
4.3229
 30
0
 70
     0
  0
VERTEX
  8
LAYER1
 10
4.3741
 20
4.3273
 30
0
 70
     0
  0
VERTEX
  8
LAYER1
 10
4.4167
 20
4.3125
 30
0
 70
     0
  0
VERTEX
  8
LAYER1
 10
4.4167
 20
4.3125
 30
0
 70
     0
  0
VERTEX
  8
LAYER1
 10
4.4531
 20
4.2878
 30
0
 70
     0
  0
VERTEX
  8
LAYER1
 10
4.4653
 20
4.2621
 30
0
 70
     0
  0
VERTEX
  8
LAYER1
 10
4.4531
 20
4.2357
 30
0
 70
     0
  0
VERTEX
  8
LAYER1
 10
4.4167
 20
4.2083
 30
0
 70
     0
  0
VERTEX
  8
LAYER1
 10
4.4167
 20
4.2083
 30
0
 70
     0
  0
VERTEX
  8
LAYER1
 10
4.3741
 20
4.1905
 30
0
 70
     0
  0
VERTEX
  8
LAYER1
 10
4.3437
 20
4.1927
 30
0
 70
     0
  0
VERTEX
  8
LAYER1
 10
4.3255
 20
4.2148
 30
0
 70
     0
  0
VERTEX
  8
LAYER1
 10
4.3194
 20
4.2569
 30
0
 70
     0
  0
SEQEND
  0
ENDBLK
  8
LAYER1
  0
BLOCK
  8
LAYER1
  2
Group25
 70
     0
 10
0
 20
0
 30
0
  0
INSERT
  8
LAYER1
  2
Group24
 10
0
 20
0
 30
0
  0
LINE
  8
LAYER1
  6
CONTINUOUS
 62
     7
 10
4.0278
 20
4.2639
 30
0
 11
4.3194
 21
4.2639
 31
0
  0
LINE
  8
LAYER1
  6
CONTINUOUS
 62
     7
 10
4.6944
 20
4.2639
 30
0
 11
5.0278
 21
4.2639
 31
0
  0
LINE
  8
LAYER1
  6
CONTINUOUS
 62
     7
 10
4.5139
 20
4.2639
 30
0
 11
4.5139
 21
4.4444
 31
0
  0
POLYLINE
  8
LAYER1
  6
CONTINUOUS
 62
     7
 66
     1
 70
     0
 40
0.0049
 41
0.0049
  0
VERTEX
  8
LAYER1
 10
4.4306
 20
4.6111
 30
0
 70
     0
  0
VERTEX
  8
LAYER1
 10
4.6111
 20
4.6111
 30
0
 70
     0
  0
VERTEX
  8
LAYER1
 10
4.6111
 20
4.4306
 30
0
 70
     0
  0
VERTEX
  8
LAYER1
 10
4.4306
 20
4.4306
 30
0
 70
     0
  0
VERTEX
  8
LAYER1
 10
4.4306
 20
4.6111
 30
0
 70
     0
  0
SEQEND
  0
TEXT
  8
LAYER1
 62
     7
 10
4.4611
 20
4.5101
 30
0
 40
0.0833
  1
P
 50
0
999
Geneva
  0
ENDBLK
  8
LAYER1
  0
BLOCK
  8
LAYER1
  2
Group26
 70
     0
 10
0
 20
0
 30
0
  0
SOLID
  8
LAYER1
 62
     7
 10
4.3194
 20
2.9861
 30
0
 11
4.25
 21
2.9444
 31
0
 12
4.25
 22
3.0278
 32
0
 13
4.2778
 23
2.9861
 33
0
  0
ENDBLK
  8
LAYER1
  0
BLOCK
  8
LAYER1
  2
Group27
 70
     0
 10
0
 20
0
 30
0
  0
POLYLINE
  8
LAYER1
  6
CONTINUOUS
 62
     7
 66
     1
 70
     0
 40
0.0049
 41
0.0049
  0
VERTEX
  8
LAYER1
 10
4.6944
 20
2.9931
 30
0
 70
     0
  0
VERTEX
  8
LAYER1
 10
4.6888
 20
3.0352
 30
0
 70
     0
  0
VERTEX
  8
LAYER1
 10
4.6719
 20
3.0573
 30
0
 70
     0
  0
VERTEX
  8
LAYER1
 10
4.6437
 20
3.0595
 30
0
 70
     0
  0
VERTEX
  8
LAYER1
 10
4.6042
 20
3.0417
 30
0
 70
     0
  0
VERTEX
  8
LAYER1
 10
4.6042
 20
3.0417
 30
0
 70
     0
  0
VERTEX
  8
LAYER1
 10
4.5703
 20
3.0143
 30
0
 70
     0
  0
VERTEX
  8
LAYER1
 10
4.559
 20
2.9878
 30
0
 70
     0
  0
VERTEX
  8
LAYER1
 10
4.5703
 20
2.9622
 30
0
 70
     0
  0
VERTEX
  8
LAYER1
 10
4.6042
 20
2.9375
 30
0
 70
     0
  0
VERTEX
  8
LAYER1
 10
4.6042
 20
2.9375
 30
0
 70
     0
  0
VERTEX
  8
LAYER1
 10
4.6437
 20
2.9227
 30
0
 70
     0
  0
VERTEX
  8
LAYER1
 10
4.6719
 20
2.9271
 30
0
 70
     0
  0
VERTEX
  8
LAYER1
 10
4.6888
 20
2.9505
 30
0
 70
     0
  0
VERTEX
  8
LAYER1
 10
4.6944
 20
2.9931
 30
0
 70
     0
  0
SEQEND
  0
POLYLINE
  8
LAYER1
  6
CONTINUOUS
 62
     7
 66
     1
 70
     0
 40
0.0049
 41
0.0049
  0
VERTEX
  8
LAYER1
 10
4.3194
 20
2.9931
 30
0
 70
     0
  0
VERTEX
  8
LAYER1
 10
4.3255
 20
3.0352
 30
0
 70
     0
  0
VERTEX
  8
LAYER1
 10
4.3437
 20
3.0573
 30
0
 70
     0
  0
VERTEX
  8
LAYER1
 10
4.3741
 20
3.0595
 30
0
 70
     0
  0
VERTEX
  8
LAYER1
 10
4.4167
 20
3.0417
 30
0
 70
     0
  0
VERTEX
  8
LAYER1
 10
4.4167
 20
3.0417
 30
0
 70
     0
  0
VERTEX
  8
LAYER1
 10
4.4531
 20
3.0143
 30
0
 70
     0
  0
VERTEX
  8
LAYER1
 10
4.4653
 20
2.9878
 30
0
 70
     0
  0
VERTEX
  8
LAYER1
 10
4.4531
 20
2.9622
 30
0
 70
     0
  0
VERTEX
  8
LAYER1
 10
4.4167
 20
2.9375
 30
0
 70
     0
  0
VERTEX
  8
LAYER1
 10
4.4167
 20
2.9375
 30
0
 70
     0
  0
VERTEX
  8
LAYER1
 10
4.3741
 20
2.9227
 30
0
 70
     0
  0
VERTEX
  8
LAYER1
 10
4.3437
 20
2.9271
 30
0
 70
     0
  0
VERTEX
  8
LAYER1
 10
4.3255
 20
2.9505
 30
0
 70
     0
  0
VERTEX
  8
LAYER1
 10
4.3194
 20
2.9931
 30
0
 70
     0
  0
SEQEND
  0
INSERT
  8
LAYER1
  2
Group26
 10
0
 20
0
 30
0
  0
LINE
  8
LAYER1
  6
CONTINUOUS
 62
     7
 10
4.0278
 20
2.9861
 30
0
 11
4.2778
 21
2.9861
 31
0
  0
LINE
  8
LAYER1
  6
CONTINUOUS
 62
     7
 10
4.6944
 20
2.9861
 30
0
 11
5.0278
 21
2.9861
 31
0
  0
LINE
  8
LAYER1
  6
CONTINUOUS
 62
     7
 10
4.4722
 20
3.1528
 30
0
 11
4.5417
 21
3.25
 31
0
  0
LINE
  8
LAYER1
  6
CONTINUOUS
 62
     7
 10
4.4861
 20
3.2778
 30
0
 11
4.5833
 21
3.2222
 31
0
  0
POLYLINE
  8
LAYER1
  6
CONTINUOUS
 62
     7
 66
     1
 70
     0
 40
0.0049
 41
0.0049
  0
VERTEX
  8
LAYER1
 10
4.5
 20
3.125
 30
0
 70
     0
  0
VERTEX
  8
LAYER1
 10
4.4444
 20
3.1667
 30
0
 70
     0
  0
VERTEX
  8
LAYER1
 10
4.3889
 20
3.0556
 30
0
 70
     0
  0
SEQEND
  0
ENDBLK
  8
LAYER1
  0
BLOCK
  8
LAYER1
  2
Group28
 70
     0
 10
0
 20
0
 30
0
  0
LINE
  8
LAYER1
  6
CONTINUOUS
 62
     7
 10
4.5
 20
3.125
 30
0
 11
4.4444
 21
3.0278
 31
0
  0
POLYLINE
  8
LAYER1
  6
CONTINUOUS
 62
     7
 66
     1
 70
     0
 40
0.0049
 41
0.0049
  0
VERTEX
  8
LAYER1
 10
4.6944
 20
1.5833
 30
0
 70
     0
  0
VERTEX
  8
LAYER1
 10
4.6888
 20
1.6285
 30
0
 70
     0
  0
VERTEX
  8
LAYER1
 10
4.6719
 20
1.6528
 30
0
 70
     0
  0
VERTEX
  8
LAYER1
 10
4.6437
 20
1.6562
 30
0
 70
     0
  0
VERTEX
  8
LAYER1
 10
4.6042
 20
1.6389
 30
0
 70
     0
  0
VERTEX
  8
LAYER1
 10
4.6042
 20
1.6389
 30
0
 70
     0
  0
VERTEX
  8
LAYER1
 10
4.5703
 20
1.6111
 30
0
 70
     0
  0
VERTEX
  8
LAYER1
 10
4.559
 20
1.5833
 30
0
 70
     0
  0
VERTEX
  8
LAYER1
 10
4.5703
 20
1.5556
 30
0
 70
     0
  0
VERTEX
  8
LAYER1
 10
4.6042
 20
1.5278
 30
0
 70
     0
  0
VERTEX
  8
LAYER1
 10
4.6042
 20
1.5278
 30
0
 70
     0
  0
VERTEX
  8
LAYER1
 10
4.6437
 20
1.5104
 30
0
 70
     0
  0
VERTEX
  8
LAYER1
 10
4.6719
 20
1.5139
 30
0
 70
     0
  0
VERTEX
  8
LAYER1
 10
4.6888
 20
1.5382
 30
0
 70
     0
  0
VERTEX
  8
LAYER1
 10
4.6944
 20
1.5833
 30
0
 70
     0
  0
SEQEND
  0
POLYLINE
  8
LAYER1
  6
CONTINUOUS
 62
     7
 66
     1
 70
     0
 40
0.0049
 41
0.0049
  0
VERTEX
  8
LAYER1
 10
4.3194
 20
1.5833
 30
0
 70
     0
  0
VERTEX
  8
LAYER1
 10
4.3255
 20
1.6285
 30
0
 70
     0
  0
VERTEX
  8
LAYER1
 10
4.3437
 20
1.6528
 30
0
 70
     0
  0
VERTEX
  8
LAYER1
 10
4.3741
 20
1.6562
 30
0
 70
     0
  0
VERTEX
  8
LAYER1
 10
4.4167
 20
1.6389
 30
0
 70
     0
  0
VERTEX
  8
LAYER1
 10
4.4167
 20
1.6389
 30
0
 70
     0
  0
VERTEX
  8
LAYER1
 10
4.4531
 20
1.6111
 30
0
 70
     0
  0
VERTEX
  8
LAYER1
 10
4.4653
 20
1.5833
 30
0
 70
     0
  0
VERTEX
  8
LAYER1
 10
4.4531
 20
1.5556
 30
0
 70
     0
  0
VERTEX
  8
LAYER1
 10
4.4167
 20
1.5278
 30
0
 70
     0
  0
VERTEX
  8
LAYER1
 10
4.4167
 20
1.5278
 30
0
 70
     0
  0
VERTEX
  8
LAYER1
 10
4.3741
 20
1.5104
 30
0
 70
     0
  0
VERTEX
  8
LAYER1
 10
4.3437
 20
1.5139
 30
0
 70
     0
  0
VERTEX
  8
LAYER1
 10
4.3255
 20
1.5382
 30
0
 70
     0
  0
VERTEX
  8
LAYER1
 10
4.3194
 20
1.5833
 30
0
 70
     0
  0
SEQEND
  0
ENDBLK
  8
LAYER1
  0
BLOCK
  8
LAYER1
  2
Group29
 70
     0
 10
0
 20
0
 30
0
  0
INSERT
  8
LAYER1
  2
Group28
 10
0
 20
0
 30
0
  0
LINE
  8
LAYER1
  6
CONTINUOUS
 62
     7
 10
4.0278
 20
1.5833
 30
0
 11
4.3194
 21
1.5833
 31
0
  0
LINE
  8
LAYER1
  6
CONTINUOUS
 62
     7
 10
4.6944
 20
1.5833
 30
0
 11
5.0278
 21
1.5833
 31
0
  0
LINE
  8
LAYER1
  6
CONTINUOUS
 62
     7
 10
4.5139
 20
1.5833
 30
0
 11
4.5139
 21
1.8472
 31
0
  0
TEXT
  8
LAYER1
 62
     7
 10
4.4749
 20
1.7323
 30
0
 40
0.0833
  1
S
 50
0
999
Geneva
  0
ENDBLK
  8
LAYER1
  0
BLOCK
  8
LAYER1
  2
Group30
 70
     0
 10
0
 20
0
 30
0
  0
LINE
  8
LAYER1
  6
CONTINUOUS
 62
     7
 10
4.4444
 20
1.8472
 30
0
 11
4.5833
 21
1.8472
 31
0
  0
LINE
  8
LAYER1
  6
CONTINUOUS
 62
     7
 10
8.625
 20
10.8611
 30
0
 11
12.6528
 21
10.8611
 31
0
  0
TEXT
  8
LAYER1
 62
     7
 10
8.6555
 20
10.6212
 30
0
 40
0.125
  1
FLOWSHEET SYMBOLS- Valves
 50
0
999
Geneva
  0
ENDBLK
  8
LAYER1
  0
BLOCK
  8
LAYER1
  2
Group31
 70
     0
 10
0
 20
0
 30
0
  0
LINE
  8
LAYER1
  6
CONTINUOUS
 62
     7
 10
8.625
 20
10.5417
 30
0
 11
12.6667
 21
10.5417
 31
0
  0
LINE
  8
LAYER1
  6
CONTINUOUS
 62
     7
 10
9.4306
 20
9.8194
 30
0
 11
9.7361
 21
9.8194
 31
0
  0
LINE
  8
LAYER1
  6
CONTINUOUS
 62
     7
 10
10.1111
 20
9.8194
 30
0
 11
10.4306
 21
9.8194
 31
0
  0
LINE
  8
LAYER1
  6
CONTINUOUS
 62
     7
 10
10.1111
 20
9.7083
 30
0
 11
10.1111
 21
9.9167
 31
0
  0
LINE
  8
LAYER1
  6
CONTINUOUS
 62
     7
 10
9.7361
 20
9.7083
 30
0
 11
9.7361
 21
9.9167
 31
0
  0
CIRCLE
  8
LAYER1
 10
9.9306
 20
9.8056
 30
0
 40
0.0694
  0
LINE
  8
LAYER1
  6
CONTINUOUS
 62
     7
 10
10.0278
 20
9.7083
 30
0
 11
9.9583
 21
9.7778
 31
0
  0
ENDBLK
  8
LAYER1
  0
BLOCK
  8
LAYER1
  2
Group32
 70
     0
 10
0
 20
0
 30
0
  0
LINE
  8
LAYER1
  6
CONTINUOUS
 62
     7
 10
9.875
 20
9.8611
 30
0
 11
9.8194
 21
9.9167
 31
0
  0
POLYLINE
  8
LAYER1
  6
CONTINUOUS
 62
     7
 66
     1
 70
     0
 40
0.0049
 41
0.0049
  0
VERTEX
  8
LAYER1
 10
12.9167
 20
7.4514
 30
0
 70
     0
  0
VERTEX
  8
LAYER1
 10
12.9223
 20
7.4939
 30
0
 70
     0
  0
VERTEX
  8
LAYER1
 10
12.9392
 20
7.5174
 30
0
 70
     0
  0
VERTEX
  8
LAYER1
 10
12.9674
 20
7.5217
 30
0
 70
     0
  0
VERTEX
  8
LAYER1
 10
13.0069
 20
7.5069
 30
0
 70
     0
  0
VERTEX
  8
LAYER1
 10
13.0069
 20
7.5069
 30
0
 70
     0
  0
VERTEX
  8
LAYER1
 10
13.0408
 20
7.4822
 30
0
 70
     0
  0
VERTEX
  8
LAYER1
 10
13.0521
 20
7.4566
 30
0
 70
     0
  0
VERTEX
  8
LAYER1
 10
13.0408
 20
7.4301
 30
0
 70
     0
  0
VERTEX
  8
LAYER1
 10
13.0069
 20
7.4028
 30
0
 70
     0
  0
VERTEX
  8
LAYER1
 10
13.0069
 20
7.4028
 30
0
 70
     0
  0
VERTEX
  8
LAYER1
 10
12.9674
 20
7.385
 30
0
 70
     0
  0
VERTEX
  8
LAYER1
 10
12.9392
 20
7.3871
 30
0
 70
     0
  0
VERTEX
  8
LAYER1
 10
12.9223
 20
7.4093
 30
0
 70
     0
  0
VERTEX
  8
LAYER1
 10
12.9167
 20
7.4514
 30
0
 70
     0
  0
SEQEND
  0
LINE
  8
LAYER1
  6
CONTINUOUS
 62
     7
 10
12.7083
 20
7.4583
 30
0
 11
12.9167
 21
7.4583
 31
0
  0
POLYLINE
  8
LAYER1
  6
CONTINUOUS
 62
     7
 66
     1
 70
     0
 40
0.0049
 41
0.0049
  0
VERTEX
  8
LAYER1
 10
13.1042
 20
7.6944
 30
0
 70
     0
  0
VERTEX
  8
LAYER1
 10
13.135
 20
7.6871
 30
0
 70
     0
  0
VERTEX
  8
LAYER1
 10
13.151
 20
7.6649
 30
0
 70
     0
  0
VERTEX
  8
LAYER1
 10
13.1523
 20
7.628
 30
0
 70
     0
  0
VERTEX
  8
LAYER1
 10
13.1389
 20
7.5764
 30
0
 70
     0
  0
VERTEX
  8
LAYER1
 10
13.1389
 20
7.5764
 30
0
 70
     0
  0
VERTEX
  8
LAYER1
 10
13.1286
 20
7.5506
 30
0
 70
     0
  0
VERTEX
  8
LAYER1
 10
13.1185
 20
7.5321
 30
0
 70
     0
  0
VERTEX
  8
LAYER1
 10
13.1086
 20
7.521
 30
0
 70
     0
  0
VERTEX
  8
LAYER1
 10
13.0989
 20
7.5174
 30
0
 70
     0
  0
VERTEX
  8
LAYER1
 10
13.0895
 20
7.521
 30
0
 70
     0
  0
VERTEX
  8
LAYER1
 10
13.0803
 20
7.5321
 30
0
 70
     0
  0
VERTEX
  8
LAYER1
 10
13.0713
 20
7.5506
 30
0
 70
     0
  0
VERTEX
  8
LAYER1
 10
13.0625
 20
7.5764
 30
0
 70
     0
  0
VERTEX
  8
LAYER1
 10
13.0625
 20
7.5764
 30
0
 70
     0
  0
VERTEX
  8
LAYER1
 10
13.0521
 20
7.628
 30
0
 70
     0
  0
VERTEX
  8
LAYER1
 10
13.0556
 20
7.6649
 30
0
 70
     0
  0
VERTEX
  8
LAYER1
 10
13.0729
 20
7.6871
 30
0
 70
     0
  0
VERTEX
  8
LAYER1
 10
13.1042
 20
7.6944
 30
0
 70
     0
  0
SEQEND
  0
POLYLINE
  8
LAYER1
  6
CONTINUOUS
 62
     7
 66
     1
 70
     0
 40
0.0049
 41
0.0049
  0
VERTEX
  8
LAYER1
 10
13.0278
 20
7.6875
 30
0
 70
     0
  0
VERTEX
  8
LAYER1
 10
13.0338
 20
7.7171
 30
0
 70
     0
  0
VERTEX
  8
LAYER1
 10
13.0503
 20
7.7414
 30
0
 70
     0
  0
VERTEX
  8
LAYER1
 10
13.0746
 20
7.7578
 30
0
 70
     0
  0
VERTEX
  8
LAYER1
 10
13.1042
 20
7.7639
 30
0
 70
     0
  0
VERTEX
  8
LAYER1
 10
13.1042
 20
7.7639
 30
0
 70
     0
  0
VERTEX
  8
LAYER1
 10
13.1338
 20
7.7578
 30
0
 70
     0
  0
VERTEX
  8
LAYER1
 10
13.1581
 20
7.7414
 30
0
 70
     0
  0
VERTEX
  8
LAYER1
 10
13.1745
 20
7.7171
 30
0
 70
     0
  0
VERTEX
  8
LAYER1
 10
13.1806
 20
7.6875
 30
0
 70
     0
  0
SEQEND
  0
POLYLINE
  8
LAYER1
  6
CONTINUOUS
 62
     7
 66
     1
 70
     0
 40
0.0049
 41
0.0049
  0
VERTEX
  8
LAYER1
 10
13.2917
 20
7.4514
 30
0
 70
     0
  0
VERTEX
  8
LAYER1
 10
13.2856
 20
7.4939
 30
0
 70
     0
  0
VERTEX
  8
LAYER1
 10
13.2674
 20
7.5174
 30
0
 70
     0
  0
VERTEX
  8
LAYER1
 10
13.237
 20
7.5217
 30
0
 70
     0
  0
VERTEX
  8
LAYER1
 10
13.1944
 20
7.5069
 30
0
 70
     0
  0
VERTEX
  8
LAYER1
 10
13.1944
 20
7.5069
 30
0
 70
     0
  0
VERTEX
  8
LAYER1
 10
13.158
 20
7.4822
 30
0
 70
     0
  0
VERTEX
  8
LAYER1
 10
13.1458
 20
7.4566
 30
0
 70
     0
  0
VERTEX
  8
LAYER1
 10
13.158
 20
7.4301
 30
0
 70
     0
  0
VERTEX
  8
LAYER1
 10
13.1944
 20
7.4028
 30
0
 70
     0
  0
VERTEX
  8
LAYER1
 10
13.1944
 20
7.4028
 30
0
 70
     0
  0
VERTEX
  8
LAYER1
 10
13.237
 20
7.385
 30
0
 70
     0
  0
VERTEX
  8
LAYER1
 10
13.2674
 20
7.3871
 30
0
 70
     0
  0
VERTEX
  8
LAYER1
 10
13.2856
 20
7.4093
 30
0
 70
     0
  0
VERTEX
  8
LAYER1
 10
13.2917
 20
7.4514
 30
0
 70
     0
  0
SEQEND
  0
ENDBLK
  8
LAYER1
  0
BLOCK
  8
LAYER1
  2
Group33
 70
     0
 10
0
 20
0
 30
0
  0
LINE
  8
LAYER1
  6
CONTINUOUS
 62
     7
 10
13.5
 20
7.4583
 30
0
 11
13.2917
 21
7.4583
 31
0
  0
LINE
  8
LAYER1
  6
CONTINUOUS
 62
     7
 10
9.8333
 20
8.5694
 30
0
 11
9.8333
 21
8.2917
 31
0
  0
POLYLINE
  8
LAYER1
  6
CONTINUOUS
 62
     7
 66
     1
 70
     0
 40
0.0049
 41
0.0049
  0
VERTEX
  8
LAYER1
 10
9.9653
 20
8.4375
 30
0
 70
     0
  0
VERTEX
  8
LAYER1
 10
9.9922
 20
8.4727
 30
0
 70
     0
  0
VERTEX
  8
LAYER1
 10
9.9965
 20
8.5017
 30
0
 70
     0
  0
VERTEX
  8
LAYER1
 10
9.9783
 20
8.5247
 30
0
 70
     0
  0
VERTEX
  8
LAYER1
 10
9.9375
 20
8.5417
 30
0
 70
     0
  0
VERTEX
  8
LAYER1
 10
9.9375
 20
8.5417
 30
0
 70
     0
  0
VERTEX
  8
LAYER1
 10
9.8937
 20
8.5473
 30
0
 70
     0
  0
VERTEX
  8
LAYER1
 10
9.8663
 20
8.5364
 30
0
 70
     0
  0
VERTEX
  8
LAYER1
 10
9.8555
 20
8.5091
 30
0
 70
     0
  0
VERTEX
  8
LAYER1
 10
9.8611
 20
8.4653
 30
0
 70
     0
  0
VERTEX
  8
LAYER1
 10
9.8611
 20
8.4653
 30
0
 70
     0
  0
VERTEX
  8
LAYER1
 10
9.878
 20
8.4245
 30
0
 70
     0
  0
VERTEX
  8
LAYER1
 10
9.901
 20
8.4062
 30
0
 70
     0
  0
VERTEX
  8
LAYER1
 10
9.9301
 20
8.4106
 30
0
 70
     0
  0
VERTEX
  8
LAYER1
 10
9.9653
 20
8.4375
 30
0
 70
     0
  0
SEQEND
  0
POLYLINE
  8
LAYER1
  6
CONTINUOUS
 62
     7
 66
     1
 70
     0
 40
0.0049
 41
0.0049
  0
VERTEX
  8
LAYER1
 10
9.9722
 20
8.4444
 30
0
 70
     0
  0
VERTEX
  8
LAYER1
 10
10.0833
 20
8.3194
 30
0
 70
     0
  0
VERTEX
  8
LAYER1
 10
10.2361
 20
8.3194
 30
0
 70
     0
  0
SEQEND
  0
LINE
  8
LAYER1
  6
CONTINUOUS
 62
     7
 10
9.9028
 20
8.2917
 30
0
 11
9.7778
 21
8.2917
 31
0
  0
POLYLINE
  8
LAYER1
  6
CONTINUOUS
 62
     7
 66
     1
 70
     0
 40
0.0049
 41
0.0049
  0
VERTEX
  8
LAYER1
 10
9.9444
 20
8.75
 30
0
 70
     0
  0
VERTEX
  8
LAYER1
 10
9.8333
 20
8.5694
 30
0
 70
     0
  0
VERTEX
  8
LAYER1
 10
9.7222
 20
8.75
 30
0
 70
     0
  0
VERTEX
  8
LAYER1
 10
9.9444
 20
8.75
 30
0
 70
     0
  0
SEQEND
  0
LINE
  8
LAYER1
  6
CONTINUOUS
 62
     7
 10
9.7222
 20
8.8194
 30
0
 11
9.9444
 21
8.8194
 31
0
  0
LINE
  8
LAYER1
  6
CONTINUOUS
 62
     7
 10
9.7222
 20
8.8194
 30
0
 11
9.7222
 21
8.8889
 31
0
  0
LINE
  8
LAYER1
  6
CONTINUOUS
 62
     7
 10
9.9444
 20
8.8194
 30
0
 11
9.9444
 21
8.8889
 31
0
  0
POLYLINE
  8
LAYER1
  6
CONTINUOUS
 62
     7
 66
     1
 70
     0
 40
0.0049
 41
0.0049
  0
VERTEX
  8
LAYER1
 10
10.0417
 20
8.9722
 30
0
 70
     0
  0
VERTEX
  8
LAYER1
 10
10.0278
 20
8.9583
 30
0
 70
     0
  0
VERTEX
  8
LAYER1
 10
10.0278
 20
8.9444
 30
0
 70
     0
  0
VERTEX
  8
LAYER1
 10
10.0139
 20
8.9306
 30
0
 70
     0
  0
VERTEX
  8
LAYER1
 10
10
 20
8.9167
 30
0
 70
     0
  0
VERTEX
  8
LAYER1
 10
9.9583
 20
8.8889
 30
0
 70
     0
  0
VERTEX
  8
LAYER1
 10
9.9167
 20
8.875
 30
0
 70
     0
  0
VERTEX
  8
LAYER1
 10
9.8611
 20
8.8611
 30
0
 70
     0
  0
VERTEX
  8
LAYER1
 10
9.8333
 20
8.8611
 30
0
 70
     0
  0
VERTEX
  8
LAYER1
 10
9.8056
 20
8.8611
 30
0
 70
     0
  0
VERTEX
  8
LAYER1
 10
9.75
 20
8.875
 30
0
 70
     0
  0
VERTEX
  8
LAYER1
 10
9.7083
 20
8.8889
 30
0
 70
     0
  0
VERTEX
  8
LAYER1
 10
9.6667
 20
8.9167
 30
0
 70
     0
  0
VERTEX
  8
LAYER1
 10
9.6528
 20
8.9306
 30
0
 70
     0
  0
VERTEX
  8
LAYER1
 10
9.6528
 20
8.9444
 30
0
 70
     0
  0
VERTEX
  8
LAYER1
 10
9.6389
 20
8.9583
 30
0
 70
     0
  0
VERTEX
  8
LAYER1
 10
9.625
 20
8.9722
 30
0
 70
     0
  0
SEQEND
  0
ENDBLK
  8
LAYER1
  0
BLOCK
  8
LAYER1
  2
Group34
 70
     0
 10
0
 20
0
 30
0
  0
LINE
  8
LAYER1
  6
CONTINUOUS
 62
     7
 10
9.7083
 20
7.1528
 30
0
 11
9.7083
 21
7.375
 31
0
  0
LINE
  8
LAYER1
  6
CONTINUOUS
 62
     7
 10
10.2361
 20
7.1528
 30
0
 11
10.2361
 21
7.375
 31
0
  0
POLYLINE
  8
LAYER1
  6
CONTINUOUS
 62
     7
 66
     1
 70
     0
 40
0.0049
 41
0.0049
  0
VERTEX
  8
LAYER1
 10
9.8403
 20
7.2083
 30
0
 70
     0
  0
VERTEX
  8
LAYER1
 10
9.8114
 20
7.2222
 30
0
 70
     0
  0
VERTEX
  8
LAYER1
 10
9.7908
 20
7.2361
 30
0
 70
     0
  0
VERTEX
  8
LAYER1
 10
9.7784
 20
7.25
 30
0
 70
     0
  0
VERTEX
  8
LAYER1
 10
9.7743
 20
7.2639
 30
0
 70
     0
  0
VERTEX
  8
LAYER1
 10
9.7784
 20
7.2778
 30
0
 70
     0
  0
VERTEX
  8
LAYER1
 10
9.7908
 20
7.2917
 30
0
 70
     0
  0
VERTEX
  8
LAYER1
 10
9.8114
 20
7.3056
 30
0
 70
     0
  0
VERTEX
  8
LAYER1
 10
9.8403
 20
7.3194
 30
0
 70
     0
  0
VERTEX
  8
LAYER1
 10
9.8403
 20
7.3194
 30
0
 70
     0
  0
VERTEX
  8
LAYER1
 10
9.9062
 20
7.3403
 30
0
 70
     0
  0
VERTEX
  8
LAYER1
 10
9.9722
 20
7.3472
 30
0
 70
     0
  0
VERTEX
  8
LAYER1
 10
10.0382
 20
7.3403
 30
0
 70
     0
  0
VERTEX
  8
LAYER1
 10
10.1042
 20
7.3194
 30
0
 70
     0
  0
VERTEX
  8
LAYER1
 10
10.1042
 20
7.3194
 30
0
 70
     0
  0
VERTEX
  8
LAYER1
 10
10.133
 20
7.3056
 30
0
 70
     0
  0
VERTEX
  8
LAYER1
 10
10.1536
 20
7.2917
 30
0
 70
     0
  0
VERTEX
  8
LAYER1
 10
10.166
 20
7.2778
 30
0
 70
     0
  0
VERTEX
  8
LAYER1
 10
10.1701
 20
7.2639
 30
0
 70
     0
  0
VERTEX
  8
LAYER1
 10
10.166
 20
7.25
 30
0
 70
     0
  0
VERTEX
  8
LAYER1
 10
10.1536
 20
7.2361
 30
0
 70
     0
  0
VERTEX
  8
LAYER1
 10
10.133
 20
7.2222
 30
0
 70
     0
  0
VERTEX
  8
LAYER1
 10
10.1042
 20
7.2083
 30
0
 70
     0
  0
VERTEX
  8
LAYER1
 10
10.1042
 20
7.2083
 30
0
 70
     0
  0
VERTEX
  8
LAYER1
 10
10.0382
 20
7.1875
 30
0
 70
     0
  0
VERTEX
  8
LAYER1
 10
9.9722
 20
7.1806
 30
0
 70
     0
  0
VERTEX
  8
LAYER1
 10
9.9062
 20
7.1875
 30
0
 70
     0
  0
VERTEX
  8
LAYER1
 10
9.8403
 20
7.2083
 30
0
 70
     0
  0
SEQEND
  0
LINE
  8
LAYER1
  6
CONTINUOUS
 62
     7
 10
9.4167
 20
7.2639
 30
0
 11
9.7083
 21
7.2639
 31
0
  0
ENDBLK
  8
LAYER1
  0
BLOCK
  8
LAYER1
  2
Group35
 70
     0
 10
0
 20
0
 30
0
  0
SOLID
  8
LAYER1
 62
     7
 10
9.5417
 20
5.8611
 30
0
 11
9.5833
 21
5.7778
 31
0
 12
9.5
 22
5.7778
 32
0
 13
9.5417
 23
5.8056
 33
0
  0
ENDBLK
  8
LAYER1
  0
BLOCK
  8
LAYER1
  2
Group36
 70
     0
 10
0
 20
0
 30
0
  0
LINE
  8
LAYER1
  6
CONTINUOUS
 62
     7
 10
9.5
 20
6.3611
 30
0
 11
9.5972
 21
6.3611
 31
0
  0
POLYLINE
  8
LAYER1
  6
CONTINUOUS
 62
     7
 66
     1
 70
     0
 40
0.0049
 41
0.0049
  0
VERTEX
  8
LAYER1
 10
10.0972
 20
6.0486
 30
0
 70
     0
  0
VERTEX
  8
LAYER1
 10
10.0916
 20
6.0907
 30
0
 70
     0
  0
VERTEX
  8
LAYER1
 10
10.0746
 20
6.1128
 30
0
 70
     0
  0
VERTEX
  8
LAYER1
 10
10.0464
 20
6.115
 30
0
 70
     0
  0
VERTEX
  8
LAYER1
 10
10.0069
 20
6.0972
 30
0
 70
     0
  0
VERTEX
  8
LAYER1
 10
10.0069
 20
6.0972
 30
0
 70
     0
  0
VERTEX
  8
LAYER1
 10
9.9731
 20
6.0699
 30
0
 70
     0
  0
VERTEX
  8
LAYER1
 10
9.9618
 20
6.0434
 30
0
 70
     0
  0
VERTEX
  8
LAYER1
 10
9.9731
 20
6.0178
 30
0
 70
     0
  0
VERTEX
  8
LAYER1
 10
10.0069
 20
5.9931
 30
0
 70
     0
  0
VERTEX
  8
LAYER1
 10
10.0069
 20
5.9931
 30
0
 70
     0
  0
VERTEX
  8
LAYER1
 10
10.0464
 20
5.9783
 30
0
 70
     0
  0
VERTEX
  8
LAYER1
 10
10.0746
 20
5.9826
 30
0
 70
     0
  0
VERTEX
  8
LAYER1
 10
10.0916
 20
6.0061
 30
0
 70
     0
  0
VERTEX
  8
LAYER1
 10
10.0972
 20
6.0486
 30
0
 70
     0
  0
SEQEND
  0
POLYLINE
  8
LAYER1
  6
CONTINUOUS
 62
     7
 66
     1
 70
     0
 40
0.0049
 41
0.0049
  0
VERTEX
  8
LAYER1
 10
9.7361
 20
6.0486
 30
0
 70
     0
  0
VERTEX
  8
LAYER1
 10
9.7418
 20
6.0907
 30
0
 70
     0
  0
VERTEX
  8
LAYER1
 10
9.7587
 20
6.1128
 30
0
 70
     0
  0
VERTEX
  8
LAYER1
 10
9.7869
 20
6.115
 30
0
 70
     0
  0
VERTEX
  8
LAYER1
 10
9.8264
 20
6.0972
 30
0
 70
     0
  0
VERTEX
  8
LAYER1
 10
9.8264
 20
6.0972
 30
0
 70
     0
  0
VERTEX
  8
LAYER1
 10
9.8602
 20
6.0699
 30
0
 70
     0
  0
VERTEX
  8
LAYER1
 10
9.8715
 20
6.0434
 30
0
 70
     0
  0
VERTEX
  8
LAYER1
 10
9.8602
 20
6.0178
 30
0
 70
     0
  0
VERTEX
  8
LAYER1
 10
9.8264
 20
5.9931
 30
0
 70
     0
  0
VERTEX
  8
LAYER1
 10
9.8264
 20
5.9931
 30
0
 70
     0
  0
VERTEX
  8
LAYER1
 10
9.7869
 20
5.9783
 30
0
 70
     0
  0
VERTEX
  8
LAYER1
 10
9.7587
 20
5.9826
 30
0
 70
     0
  0
VERTEX
  8
LAYER1
 10
9.7418
 20
6.0061
 30
0
 70
     0
  0
VERTEX
  8
LAYER1
 10
9.7361
 20
6.0486
 30
0
 70
     0
  0
SEQEND
  0
LINE
  8
LAYER1
  6
CONTINUOUS
 62
     7
 10
10.0972
 20
6.0417
 30
0
 11
10.4306
 21
6.0417
 31
0
  0
ENDBLK
  8
LAYER1
  0
BLOCK
  8
LAYER1
  2
Group37
 70
     0
 10
0
 20
0
 30
0
  0
INSERT
  8
LAYER1
  2
Group36
 10
0
 20
0
 30
0
  0
LINE
  8
LAYER1
  6
CONTINUOUS
 62
     7
 10
9.9167
 20
6.0417
 30
0
 11
9.7917
 21
6.2778
 31
0
  0
ENDBLK
  8
LAYER1
  0
BLOCK
  8
LAYER1
  2
Group38
 70
     0
 10
0
 20
0
 30
0
  0
LINE
  8
LAYER1
  6
CONTINUOUS
 62
     7
 10
10.2361
 20
7.2639
 30
0
 11
10.4444
 21
7.2639
 31
0
  0
POLYLINE
  8
LAYER1
  6
CONTINUOUS
 62
     7
 66
     1
 70
     0
 40
0.0049
 41
0.0049
  0
VERTEX
  8
LAYER1
 10
9.7361
 20
6.0486
 30
0
 70
     0
  0
VERTEX
  8
LAYER1
 10
9.73
 20
6.0907
 30
0
 70
     0
  0
VERTEX
  8
LAYER1
 10
9.7118
 20
6.1128
 30
0
 70
     0
  0
VERTEX
  8
LAYER1
 10
9.6814
 20
6.115
 30
0
 70
     0
  0
VERTEX
  8
LAYER1
 10
9.6389
 20
6.0972
 30
0
 70
     0
  0
VERTEX
  8
LAYER1
 10
9.6389
 20
6.0972
 30
0
 70
     0
  0
VERTEX
  8
LAYER1
 10
9.6024
 20
6.0699
 30
0
 70
     0
  0
VERTEX
  8
LAYER1
 10
9.5903
 20
6.0434
 30
0
 70
     0
  0
VERTEX
  8
LAYER1
 10
9.6024
 20
6.0178
 30
0
 70
     0
  0
VERTEX
  8
LAYER1
 10
9.6389
 20
5.9931
 30
0
 70
     0
  0
VERTEX
  8
LAYER1
 10
9.6389
 20
5.9931
 30
0
 70
     0
  0
VERTEX
  8
LAYER1
 10
9.6814
 20
5.9783
 30
0
 70
     0
  0
VERTEX
  8
LAYER1
 10
9.7118
 20
5.9826
 30
0
 70
     0
  0
VERTEX
  8
LAYER1
 10
9.73
 20
6.0061
 30
0
 70
     0
  0
VERTEX
  8
LAYER1
 10
9.7361
 20
6.0486
 30
0
 70
     0
  0
SEQEND
  0
POLYLINE
  8
LAYER1
  6
CONTINUOUS
 62
     7
 66
     1
 70
     0
 40
0.0049
 41
0.0049
  0
VERTEX
  8
LAYER1
 10
9.5486
 20
5.8611
 30
0
 70
     0
  0
VERTEX
  8
LAYER1
 10
9.5061
 20
5.8667
 30
0
 70
     0
  0
VERTEX
  8
LAYER1
 10
9.4826
 20
5.8837
 30
0
 70
     0
  0
VERTEX
  8
LAYER1
 10
9.4783
 20
5.9119
 30
0
 70
     0
  0
VERTEX
  8
LAYER1
 10
9.4931
 20
5.9514
 30
0
 70
     0
  0
VERTEX
  8
LAYER1
 10
9.4931
 20
5.9514
 30
0
 70
     0
  0
VERTEX
  8
LAYER1
 10
9.5178
 20
5.9852
 30
0
 70
     0
  0
VERTEX
  8
LAYER1
 10
9.5434
 20
5.9965
 30
0
 70
     0
  0
VERTEX
  8
LAYER1
 10
9.5699
 20
5.9852
 30
0
 70
     0
  0
VERTEX
  8
LAYER1
 10
9.5972
 20
5.9514
 30
0
 70
     0
  0
VERTEX
  8
LAYER1
 10
9.5972
 20
5.9514
 30
0
 70
     0
  0
VERTEX
  8
LAYER1
 10
9.615
 20
5.9119
 30
0
 70
     0
  0
VERTEX
  8
LAYER1
 10
9.6128
 20
5.8837
 30
0
 70
     0
  0
VERTEX
  8
LAYER1
 10
9.5907
 20
5.8667
 30
0
 70
     0
  0
VERTEX
  8
LAYER1
 10
9.5486
 20
5.8611
 30
0
 70
     0
  0
SEQEND
  0
INSERT
  8
LAYER1
  2
Group35
 10
0
 20
0
 30
0
  0
LINE
  8
LAYER1
  6
CONTINUOUS
 62
     7
 10
9.5417
 20
5.8056
 30
0
 11
9.5417
 21
5.6667
 31
0
  0
LINE
  8
LAYER1
  6
CONTINUOUS
 62
     7
 10
9.5417
 20
6.0417
 30
0
 11
9.5417
 21
6.3611
 31
0
  0
INSERT
  8
LAYER1
  2
Group37
 10
0
 20
0
 30
0
  0
ENDBLK
  8
LAYER1
  0
BLOCK
  8
LAYER1
  2
Group39
 70
     0
 10
0
 20
0
 30
0
  0
LINE
  8
LAYER1
  6
CONTINUOUS
 62
     7
 10
9.7361
 20
6.25
 30
0
 11
9.8333
 21
6.3056
 31
0
  0
POLYLINE
  8
LAYER1
  6
CONTINUOUS
 62
     7
 66
     1
 70
     0
 40
0.0049
 41
0.0049
  0
VERTEX
  8
LAYER1
 10
10.1111
 20
4.5069
 30
0
 70
     0
  0
VERTEX
  8
LAYER1
 10
10.105
 20
4.5495
 30
0
 70
     0
  0
VERTEX
  8
LAYER1
 10
10.0868
 20
4.5729
 30
0
 70
     0
  0
VERTEX
  8
LAYER1
 10
10.0564
 20
4.5773
 30
0
 70
     0
  0
VERTEX
  8
LAYER1
 10
10.0139
 20
4.5625
 30
0
 70
     0
  0
VERTEX
  8
LAYER1
 10
10.0139
 20
4.5625
 30
0
 70
     0
  0
VERTEX
  8
LAYER1
 10
9.9774
 20
4.5378
 30
0
 70
     0
  0
VERTEX
  8
LAYER1
 10
9.9653
 20
4.5121
 30
0
 70
     0
  0
VERTEX
  8
LAYER1
 10
9.9774
 20
4.4857
 30
0
 70
     0
  0
VERTEX
  8
LAYER1
 10
10.0139
 20
4.4583
 30
0
 70
     0
  0
VERTEX
  8
LAYER1
 10
10.0139
 20
4.4583
 30
0
 70
     0
  0
VERTEX
  8
LAYER1
 10
10.0564
 20
4.4405
 30
0
 70
     0
  0
VERTEX
  8
LAYER1
 10
10.0868
 20
4.4427
 30
0
 70
     0
  0
VERTEX
  8
LAYER1
 10
10.105
 20
4.4648
 30
0
 70
     0
  0
VERTEX
  8
LAYER1
 10
10.1111
 20
4.5069
 30
0
 70
     0
  0
SEQEND
  0
POLYLINE
  8
LAYER1
  6
CONTINUOUS
 62
     7
 66
     1
 70
     0
 40
0.0049
 41
0.0049
  0
VERTEX
  8
LAYER1
 10
9.7361
 20
4.5069
 30
0
 70
     0
  0
VERTEX
  8
LAYER1
 10
9.7418
 20
4.5495
 30
0
 70
     0
  0
VERTEX
  8
LAYER1
 10
9.7587
 20
4.5729
 30
0
 70
     0
  0
VERTEX
  8
LAYER1
 10
9.7869
 20
4.5773
 30
0
 70
     0
  0
VERTEX
  8
LAYER1
 10
9.8264
 20
4.5625
 30
0
 70
     0
  0
VERTEX
  8
LAYER1
 10
9.8264
 20
4.5625
 30
0
 70
     0
  0
VERTEX
  8
LAYER1
 10
9.8602
 20
4.5378
 30
0
 70
     0
  0
VERTEX
  8
LAYER1
 10
9.8715
 20
4.5121
 30
0
 70
     0
  0
VERTEX
  8
LAYER1
 10
9.8602
 20
4.4857
 30
0
 70
     0
  0
VERTEX
  8
LAYER1
 10
9.8264
 20
4.4583
 30
0
 70
     0
  0
VERTEX
  8
LAYER1
 10
9.8264
 20
4.4583
 30
0
 70
     0
  0
VERTEX
  8
LAYER1
 10
9.7869
 20
4.4405
 30
0
 70
     0
  0
VERTEX
  8
LAYER1
 10
9.7587
 20
4.4427
 30
0
 70
     0
  0
VERTEX
  8
LAYER1
 10
9.7418
 20
4.4648
 30
0
 70
     0
  0
VERTEX
  8
LAYER1
 10
9.7361
 20
4.5069
 30
0
 70
     0
  0
SEQEND
  0
ENDBLK
  8
LAYER1
  0
BLOCK
  8
LAYER1
  2
Group40
 70
     0
 10
0
 20
0
 30
0
  0
INSERT
  8
LAYER1
  2
Group39
 10
0
 20
0
 30
0
  0
LINE
  8
LAYER1
  6
CONTINUOUS
 62
     7
 10
9.4306
 20
4.5139
 30
0
 11
9.7361
 21
4.5139
 31
0
  0
LINE
  8
LAYER1
  6
CONTINUOUS
 62
     7
 10
10.1111
 20
4.5139
 30
0
 11
10.4306
 21
4.5139
 31
0
  0
LINE
  8
LAYER1
  6
CONTINUOUS
 62
     7
 10
9.9167
 20
4.7083
 30
0
 11
9.9167
 21
4.8889
 31
0
  0
POLYLINE
  8
LAYER1
  6
CONTINUOUS
 62
     7
 66
     1
 70
     0
 40
0.0049
 41
0.0049
  0
VERTEX
  8
LAYER1
 10
9.7639
 20
4.6667
 30
0
 70
     0
  0
VERTEX
  8
LAYER1
 10
9.7917
 20
4.6806
 30
0
 70
     0
  0
VERTEX
  8
LAYER1
 10
9.8194
 20
4.6944
 30
0
 70
     0
  0
VERTEX
  8
LAYER1
 10
9.8611
 20
4.7083
 30
0
 70
     0
  0
VERTEX
  8
LAYER1
 10
9.9028
 20
4.7083
 30
0
 70
     0
  0
VERTEX
  8
LAYER1
 10
9.9167
 20
4.7083
 30
0
 70
     0
  0
VERTEX
  8
LAYER1
 10
9.9444
 20
4.7083
 30
0
 70
     0
  0
VERTEX
  8
LAYER1
 10
9.9722
 20
4.7083
 30
0
 70
     0
  0
VERTEX
  8
LAYER1
 10
10.0139
 20
4.6944
 30
0
 70
     0
  0
VERTEX
  8
LAYER1
 10
10.0417
 20
4.6806
 30
0
 70
     0
  0
VERTEX
  8
LAYER1
 10
10.0694
 20
4.6667
 30
0
 70
     0
  0
SEQEND
  0
ENDBLK
  8
LAYER1
  0
BLOCK
  8
LAYER1
  2
Group41
 70
     0
 10
0
 20
0
 30
0
  0
LINE
  8
LAYER1
  6
CONTINUOUS
 62
     7
 10
9.8611
 20
4.8889
 30
0
 11
9.9861
 21
4.8889
 31
0
  0
LINE
  8
LAYER1
  6
CONTINUOUS
 62
     7
 10
12.5972
 20
8.8056
 30
0
 11
12.9028
 21
8.8056
 31
0
  0
LINE
  8
LAYER1
  6
CONTINUOUS
 62
     7
 10
13.2778
 20
8.8056
 30
0
 11
13.5972
 21
8.8056
 31
0
  0
LINE
  8
LAYER1
  6
CONTINUOUS
 62
     7
 10
13.2778
 20
8.9167
 30
0
 11
13.1667
 21
8.8611
 31
0
  0
POLYLINE
  8
LAYER1
  6
CONTINUOUS
 62
     7
 66
     1
 70
     0
 40
0.0049
 41
0.0049
  0
VERTEX
  8
LAYER1
 10
13.1667
 20
8.7639
 30
0
 70
     0
  0
VERTEX
  8
LAYER1
 10
13.2778
 20
8.7083
 30
0
 70
     0
  0
VERTEX
  8
LAYER1
 10
13.2778
 20
8.9167
 30
0
 70
     0
  0
SEQEND
  0
LINE
  8
LAYER1
  6
CONTINUOUS
 62
     7
 10
12.9028
 20
8.9167
 30
0
 11
13.0139
 21
8.8611
 31
0
  0
POLYLINE
  8
LAYER1
  6
CONTINUOUS
 62
     7
 66
     1
 70
     0
 40
0.0049
 41
0.0049
  0
VERTEX
  8
LAYER1
 10
13.0139
 20
8.7639
 30
0
 70
     0
  0
VERTEX
  8
LAYER1
 10
12.9028
 20
8.7083
 30
0
 70
     0
  0
VERTEX
  8
LAYER1
 10
12.9028
 20
8.9167
 30
0
 70
     0
  0
SEQEND
  0
CIRCLE
  8
LAYER1
 10
13.0972
 20
8.8056
 30
0
 40
0.0972
  0
ENDBLK
  8
LAYER1
  0
BLOCK
  8
LAYER1
  2
Group42
 70
     0
 10
0
 20
0
 30
0
  0
INSERT
  8
LAYER1
  2
Group41
 10
0
 20
0
 30
0
  0
POLYLINE
  8
LAYER1
  6
CONTINUOUS
 62
     7
 66
     1
 70
     0
 40
0.0049
 41
0.0049
  0
VERTEX
  8
LAYER1
 10
13.0972
 20
8.8056
 30
0
 70
     0
  0
VERTEX
  8
LAYER1
 10
13.0972
 20
8.8056
 30
0
 70
     0
  0
VERTEX
  8
LAYER1
 10
13.0833
 20
8.8194
 30
0
 70
     0
  0
VERTEX
  8
LAYER1
 10
13.0694
 20
8.8194
 30
0
 70
     0
  0
VERTEX
  8
LAYER1
 10
13.0694
 20
8.8194
 30
0
 70
     0
  0
VERTEX
  8
LAYER1
 10
13.0556
 20
8.8472
 30
0
 70
     0
  0
VERTEX
  8
LAYER1
 10
13.0556
 20
8.8611
 30
0
 70
     0
  0
VERTEX
  8
LAYER1
 10
13.0556
 20
8.8611
 30
0
 70
     0
  0
VERTEX
  8
LAYER1
 10
13.0694
 20
8.8889
 30
0
 70
     0
  0
VERTEX
  8
LAYER1
 10
13.0694
 20
8.8889
 30
0
 70
     0
  0
VERTEX
  8
LAYER1
 10
13.0694
 20
8.8889
 30
0
 70
     0
  0
VERTEX
  8
LAYER1
 10
13.0972
 20
8.9028
 30
0
 70
     0
  0
VERTEX
  8
LAYER1
 10
13.0972
 20
8.9028
 30
0
 70
     0
  0
SEQEND
  0
POLYLINE
  8
LAYER1
  6
CONTINUOUS
 62
     7
 66
     1
 70
     0
 40
0.0049
 41
0.0049
  0
VERTEX
  8
LAYER1
 10
13.0972
 20
8.8056
 30
0
 70
     0
  0
VERTEX
  8
LAYER1
 10
13.1111
 20
8.8056
 30
0
 70
     0
  0
VERTEX
  8
LAYER1
 10
13.125
 20
8.7917
 30
0
 70
     0
  0
VERTEX
  8
LAYER1
 10
13.125
 20
8.7778
 30
0
 70
     0
  0
VERTEX
  8
LAYER1
 10
13.125
 20
8.7639
 30
0
 70
     0
  0
VERTEX
  8
LAYER1
 10
13.125
 20
8.75
 30
0
 70
     0
  0
VERTEX
  8
LAYER1
 10
13.125
 20
8.7361
 30
0
 70
     0
  0
VERTEX
  8
LAYER1
 10
13.1111
 20
8.7222
 30
0
 70
     0
  0
VERTEX
  8
LAYER1
 10
13.0972
 20
8.7222
 30
0
 70
     0
  0
SEQEND
  0
ENDBLK
  8
LAYER1
  0
BLOCK
  8
LAYER1
  2
Group43
 70
     0
 10
0
 20
0
 30
0
  0
POLYLINE
  8
LAYER1
  6
CONTINUOUS
 62
     7
 66
     1
 70
     0
 40
0.0049
 41
0.0049
  0
VERTEX
  8
LAYER1
 10
12.9167
 20
6.2431
 30
0
 70
     0
  0
VERTEX
  8
LAYER1
 10
12.9223
 20
6.2852
 30
0
 70
     0
  0
VERTEX
  8
LAYER1
 10
12.9392
 20
6.3073
 30
0
 70
     0
  0
VERTEX
  8
LAYER1
 10
12.9674
 20
6.3095
 30
0
 70
     0
  0
VERTEX
  8
LAYER1
 10
13.0069
 20
6.2917
 30
0
 70
     0
  0
VERTEX
  8
LAYER1
 10
13.0069
 20
6.2917
 30
0
 70
     0
  0
VERTEX
  8
LAYER1
 10
13.0408
 20
6.2643
 30
0
 70
     0
  0
VERTEX
  8
LAYER1
 10
13.0521
 20
6.2378
 30
0
 70
     0
  0
VERTEX
  8
LAYER1
 10
13.0408
 20
6.2122
 30
0
 70
     0
  0
VERTEX
  8
LAYER1
 10
13.0069
 20
6.1875
 30
0
 70
     0
  0
VERTEX
  8
LAYER1
 10
13.0069
 20
6.1875
 30
0
 70
     0
  0
VERTEX
  8
LAYER1
 10
12.9674
 20
6.1727
 30
0
 70
     0
  0
VERTEX
  8
LAYER1
 10
12.9392
 20
6.1771
 30
0
 70
     0
  0
VERTEX
  8
LAYER1
 10
12.9223
 20
6.2005
 30
0
 70
     0
  0
VERTEX
  8
LAYER1
 10
12.9167
 20
6.2431
 30
0
 70
     0
  0
SEQEND
  0
LINE
  8
LAYER1
  6
CONTINUOUS
 62
     7
 10
12.7083
 20
6.2361
 30
0
 11
12.9167
 21
6.2361
 31
0
  0
POLYLINE
  8
LAYER1
  6
CONTINUOUS
 62
     7
 66
     1
 70
     0
 40
0.0049
 41
0.0049
  0
VERTEX
  8
LAYER1
 10
13.2917
 20
6.2431
 30
0
 70
     0
  0
VERTEX
  8
LAYER1
 10
13.2856
 20
6.2852
 30
0
 70
     0
  0
VERTEX
  8
LAYER1
 10
13.2674
 20
6.3073
 30
0
 70
     0
  0
VERTEX
  8
LAYER1
 10
13.237
 20
6.3095
 30
0
 70
     0
  0
VERTEX
  8
LAYER1
 10
13.1944
 20
6.2917
 30
0
 70
     0
  0
VERTEX
  8
LAYER1
 10
13.1944
 20
6.2917
 30
0
 70
     0
  0
VERTEX
  8
LAYER1
 10
13.158
 20
6.2643
 30
0
 70
     0
  0
VERTEX
  8
LAYER1
 10
13.1458
 20
6.2378
 30
0
 70
     0
  0
VERTEX
  8
LAYER1
 10
13.158
 20
6.2122
 30
0
 70
     0
  0
VERTEX
  8
LAYER1
 10
13.1944
 20
6.1875
 30
0
 70
     0
  0
VERTEX
  8
LAYER1
 10
13.1944
 20
6.1875
 30
0
 70
     0
  0
VERTEX
  8
LAYER1
 10
13.237
 20
6.1727
 30
0
 70
     0
  0
VERTEX
  8
LAYER1
 10
13.2674
 20
6.1771
 30
0
 70
     0
  0
VERTEX
  8
LAYER1
 10
13.2856
 20
6.2005
 30
0
 70
     0
  0
VERTEX
  8
LAYER1
 10
13.2917
 20
6.2431
 30
0
 70
     0
  0
SEQEND
  0
LINE
  8
LAYER1
  6
CONTINUOUS
 62
     7
 10
13.5
 20
6.2361
 30
0
 11
13.2917
 21
6.2361
 31
0
  0
LINE
  8
LAYER1
  6
CONTINUOUS
 62
     7
 10
13.0972
 20
6.2361
 30
0
 11
13.0972
 21
6.4167
 31
0
  0
LINE
  8
LAYER1
  6
CONTINUOUS
 62
     7
 10
13
 20
6.375
 30
0
 11
13.2639
 21
6.4861
 31
0
  0
LINE
  8
LAYER1
  6
CONTINUOUS
 62
     7
 10
13
 20
6.375
 30
0
 11
13
 21
6.3056
 31
0
  0
POLYLINE
  8
LAYER1
 66
     1
 62
     7
 70
     1
 40
0.0139
 41
0.0139
  0
VERTEX
  8
LAYER1
 10
13.1111
 20
6.4167
 30
0
 42
1
 70
     0
  0
VERTEX
  8
LAYER1
 10
13.125
 20
6.4028
 30
0
 42
1
 70
     0
  0
SEQEND
  0
CIRCLE
  8
LAYER1
 10
13.1181
 20
6.4097
 30
0
 40
0.0208
  0
POLYLINE
  8
LAYER1
 66
     1
 62
     7
 70
     1
 40
0.0139
 41
0.0139
  0
VERTEX
  8
LAYER1
 10
13
 20
6.375
 30
0
 42
1
 70
     0
  0
VERTEX
  8
LAYER1
 10
13.0139
 20
6.3611
 30
0
 42
1
 70
     0
  0
SEQEND
  0
CIRCLE
  8
LAYER1
 10
13.0069
 20
6.3681
 30
0
 40
0.0208
  0
ENDBLK
  8
LAYER1
  0
BLOCK
  8
LAYER1
  2
Group44
 70
     0
 10
0
 20
0
 30
0
  0
TEXT
  8
LAYER1
 62
     7
 10
2.5027
 20
0.0795
 30
0
 40
0.1389
  1
- 4-142 -
 50
0
999
Geneva
  0
TEXT
  8
LAYER1
 62
     7
 10
10.7249
 20
0.0795
 30
0
 40
0.1389
  1
- 4-143 -
 50
0
999
Geneva
  0
TEXT
  8
LAYER1
 62
     7
 10
1.0027
 20
8.3573
 30
0
 40
0.0833
  1
Characterized Port
 50
0
999
Geneva
  0
TEXT
  8
LAYER1
 62
     7
 10
0.8222
 20
6.9823
 30
0
 40
0.0833
  1
Diaphragm Control Valve
 50
0
999
Geneva
  0
TEXT
  8
LAYER1
 62
     7
 10
2.2634
 20
6.9823
 30
0
 40
0.0833
  1
 
 50
0
999
Geneva
  0
TEXT
  8
LAYER1
 62
     7
 10
1.2111
 20
6.8156
 30
0
 40
0.0833
  1
(angle type)
 50
0
999
Geneva
  0
TEXT
  8
LAYER1
 62
     7
 10
4.2805
 20
2.5934
 30
0
 40
0.0833
  1
Y Vlave
 50
0
999
Geneva
  0
TEXT
  8
LAYER1
 62
     7
 10
4.2111
 20
8.3156
 30
0
 40
0.0833
  1
Ball Valve
 50
0
999
Geneva
  0
TEXT
  8
LAYER1
 62
     7
 10
3.6277
 20
6.774
 30
0
 40
0.0833
  1
Combination Relief Valve and
 50
0
999
Geneva
  0
TEXT
  8
LAYER1
 62
     7
 10
5.3359
 20
6.774
 30
0
 40
0.0833
  1
 
 50
0
999
Geneva
  0
TEXT
  8
LAYER1
 62
     7
 10
3.7805
 20
6.6073
 30
0
 40
0.0833
  1
Rupture-Disk Assembly
 50
0
999
Geneva
  0
TEXT
  8
LAYER1
 62
     7
 10
0.9888
 20
3.3156
 30
0
 40
0.0833
  1
Safety Relief Valve
 50
0
999
Geneva
  0
TEXT
  8
LAYER1
 62
     7
 10
2.042
 20
3.3156
 30
0
 40
0.0833
  1
 
 50
0
999
Geneva
  0
TEXT
  8
LAYER1
 62
     7
 10
1.0305
 20
3.149
 30
0
 40
0.0833
  1
(vacuum breaker)
 50
0
999
Geneva
  0
TEXT
  8
LAYER1
 62
     7
 10
3.9333
 20
1.2045
 30
0
 40
0.0833
  1
Bellows Seal Valve
 50
0
999
Geneva
  0
TEXT
  8
LAYER1
 62
     7
 10
1.3222
 20
9.4962
 30
0
 40
0.0833
  1
Air-MOV
 50
0
999
Geneva
  0
TEXT
  8
LAYER1
 62
     7
 10
1.1972
 20
4.5517
 30
0
 40
0.0833
  1
Needle Valve
 50
0
999
Geneva
  0
TEXT
  8
LAYER1
 62
     7
 10
9.1694
 20
8.0795
 30
0
 40
0.0833
  1
Flush Bottom Tank Valve
 50
0
999
Geneva
  0
TEXT
  8
LAYER1
 62
     7
 10
9.5999
 20
6.899
 30
0
 40
0.0833
  1
Plug Valve
 50
0
999
Geneva
  0
TEXT
  8
LAYER1
 62
     7
 10
12.6138
 20
8.4128
 30
0
 40
0.0833
  1
Butterfly Valve
 50
0
999
Geneva
  0
TEXT
  8
LAYER1
 62
     7
 10
3.3638
 20
3.8573
 30
0
 40
0.0833
  1
Point of Connection - New to Existing
 50
0
999
Geneva
  0
TEXT
  8
LAYER1
 62
     7
 10
4.2805
 20
2.4406
 30
0
 40
0.0833
  1
Y Valve
 50
0
999
Geneva
  0
TEXT
  8
LAYER1
 62
     7
 10
1.2249
 20
0.7184
 30
0
 40
0.0833
  1
Check Valve
 50
0
999
Geneva
  0
TEXT
  8
LAYER1
 62
     7
 10
12.5027
 20
9.5656
 30
0
 40
0.0833
  1
Non-Return Valve
 50
0
999
Geneva
  0
TEXT
  8
LAYER1
 62
     7
 10
13.5105
 20
9.5656
 30
0
 40
0.0833
  1
 
 50
0
999
Geneva
  0
TEXT
  8
LAYER1
 62
     7
 10
12.4749
 20
9.399
 30
0
 40
0.0833
  1
(straight or angle)
 50
0
999
Geneva
  0
TEXT
  8
LAYER1
 62
     7
 10
12.3222
 20
7.0101
 30
0
 40
0.0833
  1
Diaphragm Control Valve
 50
0
999
Geneva
  0
TEXT
  8
LAYER1
 62
     7
 10
9.4472
 20
5.4406
 30
0
 40
0.0833
  1
Blow-off Valve
 50
0
999
Geneva
  0
TEXT
  8
LAYER1
 62
     7
 10
10.2449
 20
5.4406
 30
0
 40
0.0833
  1
 
 50
0
999
Geneva
  0
TEXT
  8
LAYER1
 62
     7
 10
9.3499
 20
5.274
 30
0
 40
0.0833
  1
(straight or angle)
 50
0
999
Geneva
  0
TEXT
  8
LAYER1
 62
     7
 10
9.5027
 20
9.524
 30
0
 40
0.0833
  1
Damper Valve
 50
0
999
Geneva
  0
TEXT
  8
LAYER1
 62
     7
 10
4.1694
 20
9.4684
 30
0
 40
0.0833
  1
Slide Valve
 50
0
999
Geneva
  0
TEXT
  8
LAYER1
 62
     7
 10
9.4055
 20
4.1212
 30
0
 40
0.0833
  1
Diaphragm Valve
 50
0
999
Geneva
  0
TEXT
  8
LAYER1
 62
     7
 10
12.4611
 20
5.8156
 30
0
 40
0.0833
  1
Quick-Opening Valve
 50
0
999
Geneva
  0
TEXT
  8
LAYER1
 62
     7
 10
3.5444
 20
5.3017
 30
0
 40
0.0833
  1
Electric-Motor-Operated Valve
 50
0
999
Geneva
  0
TEXT
  8
LAYER1
 62
     7
 10
5.2383
 20
5.3017
 30
0
 40
0.0833
  1
 
 50
0
999
Geneva
  0
TEXT
  8
LAYER1
 62
     7
 10
4.0861
 20
5.1351
 30
0
 40
0.0833
  1
ELectric-MOV
 50
0
999
Geneva
  0
INSERT
  8
LAYER1
  2
Group1
 10
0
 20
0
 30
0
  0
TEXT
  8
LAYER1
 62
     7
 10
0.7805
 20
9.3156
 30
0
 40
0.0833
  1
Air-Motor Operated Valve
 50
0
999
Geneva
  0
INSERT
  8
LAYER1
  2
Group3
 10
0
 20
0
 30
0
  0
INSERT
  8
LAYER1
  2
Group4
 10
0
 20
0
 30
0
  0
TEXT
  8
LAYER1
 62
     7
 10
1.0027
 20
8.2184
 30
0
 40
0.0833
  1
Characterized Port
 50
0
999
Geneva
  0
INSERT
  8
LAYER1
  2
Group5
 10
0
 20
0
 30
0
  0
INSERT
  8
LAYER1
  2
Group8
 10
0
 20
0
 30
0
  0
INSERT
  8
LAYER1
  2
Group11
 10
0
 20
0
 30
0
  0
INSERT
  8
LAYER1
  2
Group13
 10
0
 20
0
 30
0
  0
INSERT
  8
LAYER1
  2
Group14
 10
0
 20
0
 30
0
  0
TEXT
  8
LAYER1
 62
     7
 10
1.2249
 20
1.8573
 30
0
 40
0.0833
  1
Angle Valve
 50
0
999
Geneva
  0
TEXT
  8
LAYER1
 62
     7
 10
1.2249
 20
1.7045
 30
0
 40
0.0833
  1
Angle Valve
 50
0
999
Geneva
  0
TEXT
  8
LAYER1
 62
     7
 10
1.2249
 20
0.5656
 30
0
 40
0.0833
  1
Check Valve
 50
0
999
Geneva
  0
TEXT
  8
LAYER1
 62
     7
 10
0.8361
 20
5.649
 30
0
 40
0.0833
  1
Diaphragm Control Valve
 50
0
999
Geneva
  0
TEXT
  8
LAYER1
 62
     7
 10
2.2773
 20
5.649
 30
0
 40
0.0833
  1
 
 50
0
999
Geneva
  0
TEXT
  8
LAYER1
 62
     7
 10
1.3499
 20
5.4823
 30
0
 40
0.0833
  1
(3-way)
 50
0
999
Geneva
  0
INSERT
  8
LAYER1
  2
Group15
 10
0
 20
0
 30
0
  0
INSERT
  8
LAYER1
  2
Group17
 10
0
 20
0
 30
0
  0
INSERT
  8
LAYER1
  2
Group18
 10
0
 20
0
 30
0
  0
TEXT
  8
LAYER1
 62
     7
 10
4.1694
 20
9.3017
 30
0
 40
0.0833
  1
Slide Valve
 50
0
999
Geneva
  0
INSERT
  8
LAYER1
  2
Group19
 10
0
 20
0
 30
0
  0
TEXT
  8
LAYER1
 62
     7
 10
4.2111
 20
8.1628
 30
0
 40
0.0833
  1
Ball Valve
 50
0
999
Geneva
  0
INSERT
  8
LAYER1
  2
Group21
 10
0
 20
0
 30
0
  0
INSERT
  8
LAYER1
  2
Group23
 10
0
 20
0
 30
0
  0
INSERT
  8
LAYER1
  2
Group25
 10
0
 20
0
 30
0
  0
INSERT
  8
LAYER1
  2
Group27
 10
0
 20
0
 30
0
  0
INSERT
  8
LAYER1
  2
Group29
 10
0
 20
0
 30
0
  0
TEXT
  8
LAYER1
 62
     7
 10
3.9333
 20
1.0517
 30
0
 40
0.0833
  1
Bellows Seal Valve
 50
0
999
Geneva
  0
INSERT
  8
LAYER1
  2
Group30
 10
0
 20
0
 30
0
  0
INSERT
  8
LAYER1
  2
Group31
 10
0
 20
0
 30
0
  0
TEXT
  8
LAYER1
 62
     7
 10
9.5027
 20
9.3851
 30
0
 40
0.0833
  1
Damper Valve
 50
0
999
Geneva
  0
INSERT
  8
LAYER1
  2
Group32
 10
0
 20
0
 30
0
  0
INSERT
  8
LAYER1
  2
Group33
 10
0
 20
0
 30
0
  0
INSERT
  8
LAYER1
  2
Group34
 10
0
 20
0
 30
0
  0
TEXT
  8
LAYER1
 62
     7
 10
9.5999
 20
6.7323
 30
0
 40
0.0833
  1
Plug Valve
 50
0
999
Geneva
  0
INSERT
  8
LAYER1
  2
Group38
 10
0
 20
0
 30
0
  0
INSERT
  8
LAYER1
  2
Group40
 10
0
 20
0
 30
0
  0
INSERT
  8
LAYER1
  2
Group42
 10
0
 20
0
 30
0
  0
TEXT
  8
LAYER1
 62
     7
 10
12.6138
 20
8.2323
 30
0
 40
0.0833
  1
Butterfly Valve
 50
0
999
Geneva
  0
INSERT
  8
LAYER1
  2
Group43
 10
0
 20
0
 30
0
  0
TEXT
  8
LAYER1
 62
     7
 10
4.9333
 20
0.3017
 30
0
 40
0.0833
  1
©1992
 50
0
999
Geneva
  0
TEXT
  8
LAYER1
 62
     7
 10
4.2249
 20
0.1351
 30
0
 40
0.0833
  1
Advanced System Design, Inc.
 50
0
999
Geneva
  0
TEXT
  8
LAYER1
 62
     7
 10
0.1555
 20
0.149
 30
0
 40
0.0833
  1
Scale 1/4in = 1ft  Printed at 70%
 50
0
999
Geneva
  0
TEXT
  8
LAYER1
 62
     7
 10
13.2944
 20
0.3017
 30
0
 40
0.0833
  1
©1992
 50
0
999
Geneva
  0
TEXT
  8
LAYER1
 62
     7
 10
12.5861
 20
0.1351
 30
0
 40
0.0833
  1
Advanced System Design, Inc.
 50
0
999
Geneva
  0
TEXT
  8
LAYER1
 62
     7
 10
8.5999
 20
0.149
 30
0
 40
0.0833
  1
Scale 1/4in = 1ft  Printed at 70%
 50
0
999
Geneva
  0
TEXT
  8
LAYER1
 62
     7
 10
1.3916
 20
9.149
 30
0
 40
0.0833
  1
35800
 50
0
999
Geneva
  0
TEXT
  8
LAYER1
 62
     7
 10
4.3083
 20
9.1351
 30
0
 40
0.0833
  1
35801
 50
0
999
Geneva
  0
TEXT
  8
LAYER1
 62
     7
 10
1.3916
 20
8.0517
 30
0
 40
0.0833
  1
35802
 50
0
999
Geneva
  0
TEXT
  8
LAYER1
 62
     7
 10
4.3083
 20
7.9962
 30
0
 40
0.0833
  1
35803
 50
0
999
Geneva
  0
TEXT
  8
LAYER1
 62
     7
 10
1.3916
 20
6.649
 30
0
 40
0.0833
  1
35804
 50
0
999
Geneva
  0
TEXT
  8
LAYER1
 62
     7
 10
4.3083
 20
6.4406
 30
0
 40
0.0833
  1
35805
 50
0
999
Geneva
  0
TEXT
  8
LAYER1
 62
     7
 10
1.3916
 20
5.3295
 30
0
 40
0.0833
  1
35806
 50
0
999
Geneva
  0
TEXT
  8
LAYER1
 62
     7
 10
4.3083
 20
4.9406
 30
0
 40
0.0833
  1
35807
 50
0
999
Geneva
  0
TEXT
  8
LAYER1
 62
     7
 10
1.3916
 20
4.4128
 30
0
 40
0.0833
  1
35808
 50
0
999
Geneva
  0
TEXT
  8
LAYER1
 62
     7
 10
1.3916
 20
2.9962
 30
0
 40
0.0833
  1
35809
 50
0
999
Geneva
  0
TEXT
  8
LAYER1
 62
     7
 10
4.3083
 20
3.6906
 30
0
 40
0.0833
  1
35810
 50
0
999
Geneva
  0
TEXT
  8
LAYER1
 62
     7
 10
1.3916
 20
1.5378
 30
0
 40
0.0833
  1
35811
 50
0
999
Geneva
  0
TEXT
  8
LAYER1
 62
     7
 10
4.3083
 20
2.3017
 30
0
 40
0.0833
  1
35812
 50
0
999
Geneva
  0
TEXT
  8
LAYER1
 62
     7
 10
1.3916
 20
0.4128
 30
0
 40
0.0833
  1
35813
 50
0
999
Geneva
  0
TEXT
  8
LAYER1
 62
     7
 10
4.3083
 20
0.899
 30
0
 40
0.0833
  1
35814
 50
0
999
Geneva
  0
TEXT
  8
LAYER1
 62
     7
 10
9.7249
 20
9.2323
 30
0
 40
0.0833
  1
35815
 50
0
999
Geneva
  0
TEXT
  8
LAYER1
 62
     7
 10
12.8916
 20
9.2184
 30
0
 40
0.0833
  1
35816
 50
0
999
Geneva
  0
TEXT
  8
LAYER1
 62
     7
 10
9.7249
 20
7.9267
 30
0
 40
0.0833
  1
35817
 50
0
999
Geneva
  0
TEXT
  8
LAYER1
 62
     7
 10
12.8916
 20
8.0656
 30
0
 40
0.0833
  1
35818
 50
0
999
Geneva
  0
TEXT
  8
LAYER1
 62
     7
 10
9.7249
 20
6.5656
 30
0
 40
0.0833
  1
35819
 50
0
999
Geneva
  0
TEXT
  8
LAYER1
 62
     7
 10
12.8916
 20
6.8434
 30
0
 40
0.0833
  1
35820
 50
0
999
Geneva
  0
TEXT
  8
LAYER1
 62
     7
 10
9.7249
 20
5.1212
 30
0
 40
0.0833
  1
35821
 50
0
999
Geneva
  0
TEXT
  8
LAYER1
 62
     7
 10
12.8916
 20
5.6351
 30
0
 40
0.0833
  1
35822
 50
0
999
Geneva
  0
TEXT
  8
LAYER1
 62
     7
 10
9.7249
 20
3.9545
 30
0
 40
0.0833
  1
35823
 50
0
999
Geneva
  0
ENDBLK
  8
LAYER1
  0
ENDSEC
  0
SECTION
  2
ENTITIES
  0
INSERT
  8
LAYER1
  2
Group44
 10
0
 20
0
 30
0
  0
ENDSEC
  0
EOF
